A tu recuerdo (TAB) (6)


e|------9----10----9----12-----12--
b|-10-10---10---10--14-----14----14h12   2 x
g|-------------------

e|----12---12-------
b|-14- 14----14h12--10--|
g|--------------------    esta parte se toca casi  toda la cancion

la otra guitarra es puro circulo de sol y claro lo puedes acompañar
este es el solo del teclado
solo:

e|--------7--8--7---10--7-10-7-10-7-10--7-------------------|
B|-------8--8--8--------------------------10----------------|
G|---7------------------------------------------------------|
D|----------------------------------------------------------|   x2
A|----------------------------------------------------------|

e|-10-12-10-12-10----------------10-8-7--------|
B|----------------12-8-10-10--10--------10-8---|
G|---------------------------------------------|  x2
D|---------------------------------------------|
A|---------------------------------------------|
E|---------------------------------------------|

e|-10-7-9-6-7-9-10-12-10-12-------8-10-8--8-8-8-8-------------|
B|--------------------------10-12-----------------10-10-------|
G|------------------------------------------------------------|
D|------------------------------------------------------------|
A|------------------------------------------------------------|
E|------------------------------------------------------------|

la cancion termina  haci
e|------9----10----9----12-----12--
b|-10-10---10---10--14-----14----14h12
g|-------------------
cuando dice larala lara lara la

e|------9----10----9
b|-10-10---10---10-

espero k les guste

 A
        A        
ngeles Negros

Este fichero es trabajo propio de su transcriptor y representa su interpretación personal de la canción. El material contenido en esta página es para exclusivo uso privado, por lo que se prohibe su reproducción o retransmisión, así como su uso para fines comerciales.



Buscar canción en YouTube Buscar cover en YouTube


Más canciones