Y en tu ventana (TAB) (2)


[---Intro---]

e-----0-1-3-5---3--5---2--3---1-3/4/3---0--1--1--3------------|
B---3---------------------------------------------------------|
G-------------------------------------------------------------|
D-------------------------------------------------------------|
A-------------------------------------------------------------|
E-------------------------------------------------------------|

e-----0-1-3-5---3-5---2-3---1-3/4/3---0--1--0-----------------|
B---3-----------------------------------------3-1-------------|
G-------------------------------------------------------------|
D-------------------------------------------------------------|
A-------------------------------------------------------------|
E-------------------------------------------------------------|

[/--Intro--]

---->A
        A        
 partir de aquí es de la siguiente manera con algún cambio en las notas finales de las estrofas<---- Dm
       Dm       
   C
        C        
Bb
       Bb       
   C
        C        
e--------1--------0-----------1-----------0-------------------| B----------------------------3--------2-----------------------| G------2--------0-----------3-------0---0---------------------| D-------------------------------------------------------------| A--0---------3-----------1------------------------------------| E-------------------------------------------------------------| Dm
       Dm       
   C
        C        
Y es que ella no sabe lo que es el amor Bb
       Bb       
   C
        C        
solo sabe de golpes y desolación Dm
       Dm       
   C
        C        
en su cara refleja la pena y el dolor Bb
       Bb       
   C
        C        
y es que ella, ella... Dm
       Dm       
   C
        C        
no conoce que el hombre que un día la enamoró Bb
       Bb       
   C
        C        
duele más el sufrimiento que cualquier moratón Dm
       Dm       
   C
        C        
se refugia en su alma de cualquier chaparrón Bb
       Bb       
   A
        A        
y es que ella, ella... ---->Estribillo<---- (de aquí al al final con ritmo de rumba) Dm
       Dm       
  Bb
       Bb       
  Y en tu cocina,tan prisionera de tu casa en la cocina Gm7
       Gm7       
  donde los días pasarán como rutinas  C
        C        
donde su siesta es la paz de tu armonía Dm
       Dm       
  Bb
       Bb       
  y en tu ventana,gritas al cielo pero lo dices callada Gm7
       Gm7       
  no vaya a ser que se despierte el que maltrata  C
        C        
cada sentido y cada gesto de tu alma Bb
       Bb       
  Dm
       Dm       
  Lo que daría yo,por cambiar su temor  C
        C        
Bb
       Bb       
  por una estrella donde sin golpes viviera ella sola Bb
       Bb       
  Dm
       Dm       
   C
        C        
lo que daría yo,por parar su reloj en madrugada Bb
       Bb       
  pa' que durmiera tranquila y sola ---->/Estribillo<---- Bb
       Bb       
  De verse sola perdía en el infierno  C
        C        
con lo calentito que se está en el invierno Gm7
       Gm7       
  pero prefiere mil veces su sueño  A
        A        
antes de verse sola en sus adentros (Estribillo) By Juanma, para aquellos que estén empezando a puntear...

 A
        A        
ndy y Lucas

Este fichero es trabajo propio de su transcriptor y representa su interpretación personal de la canción. El material contenido en esta página es para exclusivo uso privado, por lo que se prohibe su reproducción o retransmisión, así como su uso para fines comerciales.