Ratoncitos Coloraos (BAJ) (3)


G||------------------|------------------|------------------|------------------| 
D||------------------|------------------|------------------|------------------| 
A||------------------|------------------|------------------|------------------| 
E||------------------|------------------|------------------|------------------| 
 
 
                                                     
------------------|------16------23----------------| 
------------------|----------16--------21------21--| 
------------------|--14--------------------21------| 
------------------|--------------------------------| 
 
 
                                                               
--------------23----------------|------------21--------------| 
-----------21-------21------21--|------------------------19--| 
------21----------------21------|------19------------19------| 
--19----------------------------|--17------------------------| 
 
 
                                                            
------------21-----------------|------------19------------| 
-------------------19------19--|--------------------------| 
--------19------------19-------|-------17-----------17----| 
--17---------------------------|--15----------------------| 
 
 
                                                            
------------19-------------|------------18----------15----| 
---------------------------|---------------------------17-| 
--------17----------17-----|--------16----------16--------| 
--15-----------------------|--14--------------------------| 
 
 
                                                        
---------------------|------16------23----------------| 
--16-----------------|----------16--------21------21--| 
---------16----------|--14--------------------21------| 
--14-----------------|--------------------------------| 
 
 
                                                               
--------------23----------------|------------21--------------| 
-----------21-------21------21--|------------------------19--| 
------21----------------21------|------19------------19------| 
--19----------------------------|--17------------------------| 
 
 
                                                            
------------21-----------------|------------19------------| 
-------------------19------19--|--------------------------| 
--------19------------19-------|-------17-----------17----| 
--17---------------------------|--15----------------------| 
 
 
                                                            
------------19-------------|------------18----------15----| 
---------------------------|---------------------------17-| 
--------17----------17-----|--------16----------16--------| 
--15-----------------------|--14--------------------------| 
 
 
                                                                              
---------------------|------------19------------|------------19-------------| 
--16-----------------|--------------------------|---------------------------| 
---------16----------|-------17-----------17----|--------17----------17-----| 
--14-----------------|--15----------------------|--15-----------------------| 
 
 
                                                                   
------16------23----------------|--------------23----------------| 
----------16--------21------21--|-----------21-------21------21--| 
------------------------21------|------21----------------21------| 
--19----------------------------|--19----------------------------| 
 
 
                                                       
--0--------19------------|------------19-------------| 
-------------------------|---------------------------| 
------17-----------17----|--------17----------17-----| 
-------------------------|--15-----------------------| 
 
 
                                                      
------------18----------15----|---------------------| 
---------------------------17-|--16-----------------| 
--------16----------16--------|---------16----------| 
--14--------------------------|--14-----------------| 
 
 
                                                                   
------16------23----------------|--------------23----------------| 
----------16--------21------21--|-----------21-------21------21--| 
--14--------------------21------|------21----------------21------| 
--------------------------------|--19----------------------------| 
 
 
                                                       
--0--------19------------|------------19-------------| 
-------------------------|---------------------------| 
------17-----------17----|--------17----------17-----| 
-------------------------|--15-----------------------| 
 
 
                                                              
------------21--------------|------------21-----------------| 
------14----------------19--|-------------------19------19--| 
--------------------19------|--------19------------19-------| 
--17------------------------|--17---------------------------| 
 
 
                                                          
------------19-------------|------------21--------------| 
---------------------------|------14----------------19--| 
--------17----------17-----|--------------------19------| 
--15-----------------------|--17------------------------| 
 
 
                                                                   
------16------23----------------|--------------23----------------| 
----------16--------21------21--|-----------21-------21------21--| 
------------------------21------|------21----------------21------| 
--19----------------------------|--19----------------------------| 
 
 
                                                       
--0--------19------------|------------19-------------| 
-------------------------|---------------------------| 
------17-----------17----|--------17----------17-----| 
-------------------------|--15-----------------------| 
 
 
                                                              
------------21--------------|------------21-----------------| 
------14----------------19--|-------------------19------19--| 
--------------------19------|--------19------------19-------| 
--17------------------------|--17---------------------------| 
 
 
                                                                               
------------19-------------|------------21--------------|--------------------| 
---------------------------|------14----------------19--|--------------------| 
--------17----------17-----|--------------------19------|--------------------| 
--15-----------------------|--17------------------------|--17----------------| 
 
 
                                                                   
------16------23----------------|--------------23----------------| 
----------16--------21------21--|-----------21-------21------21--| 
--14--------------------21------|------21----------------21------| 
--------------------------------|--19----------------------------| 
 
 
                                                              
------------21--------------|------------21-----------------| 
------------------------19--|-------------------19------19--| 
------19------------19------|--------19------------19-------| 
--17------------------------|--17---------------------------| 
 
 
                                                        
------------19------------|------------19-------------| 
--------------------------|---------------------------| 
-------17-----------17----|--------17----------17-----| 
--15----------------------|--15-----------------------| 
 
 
                                                      
------------18----------15----|---------------------| 
---------------------------17-|--16-----------------| 
--------16----------16--------|---------16----------| 
--14--------------------------|--14-----------------| 
 
 
                                                                   
------16------23----------------|--------------23----------------| 
----------16--------21------21--|-----------21-------21------21--| 
--14--------------------21------|------21----------------21------| 
--------------------------------|--19----------------------------| 
 
 
                                                              
------------21--------------|------------21-----------------| 
------------------------19--|-------------------19------19--| 
------19------------19------|--------19------------19-------| 
--17------------------------|--17---------------------------| 
 
 
                                                        
------------19------------|------------19-------------| 
--------------------------|---------------------------| 
-------17-----------17----|--------17----------17-----| 
--15----------------------|--15-----------------------| 
 
 
                                                                                 
------------18----------15----|---------------------|------------19------------| 
---------------------------17-|--16-----------------|--------------------------| 
--------16----------16--------|---------16----------|-------17-----------17----| 
--14--------------------------|--14-----------------|--15----------------------| 
 
 
                                                              
------------19-------------|------16------23----------------| 
---------------------------|----------16--------21------21--| 
--------17----------17-----|------------------------21------| 
--15-----------------------|--19----------------------------| 
 
 
                                                            
--------------23----------------|--0--------19------------| 
-----------21-------21------21--|-------------------------| 
------21----------------21------|------17-----------17----| 
--19----------------------------|-------------------------| 
 
 
                                                            
------------19-------------|------------18----------15----| 
---------------------------|---------------------------17-| 
--------17----------17-----|--------16----------16--------| 
--15-----------------------|--14--------------------------| 
 
 
                                                        
---------------------|------16------23----------------| 
--16-----------------|----------16--------21------21--| 
---------16----------|--14--------------------21------| 
--14-----------------|--------------------------------| 
 
 
                                                            
--------------23----------------|--0--------19------------| 
-----------21-------21------21--|-------------------------| 
------21----------------21------|------17-----------17----| 
--19----------------------------|-------------------------| 
 
 
                                                          
------------19-------------|------------21--------------| 
---------------------------|------14----------------19--| 
--------17----------17-----|--------------------19------| 
--15-----------------------|--17------------------------| 
 
 
                                                             
------------21-----------------|------------19-------------| 
-------------------19------19--|---------------------------| 
--------19------------19-------|--------17----------17-----| 
--17---------------------------|--15-----------------------| 
 
 
                                                               
------------21--------------|------16------23----------------| 
------14----------------19--|----------16--------21------21--| 
--------------------19------|------------------------21------| 
--17------------------------|--19----------------------------| 
 
 
                                                            
--------------23----------------|--0--------19------------| 
-----------21-------21------21--|-------------------------| 
------21----------------21------|------17-----------17----| 
--19----------------------------|-------------------------| 
 
 
                                                          
------------19-------------|------------21--------------| 
---------------------------|------14----------------19--| 
--------17----------17-----|--------------------19------| 
--15-----------------------|--17------------------------| 
 
 
                                                             
------------21-----------------|------------19-------------| 
-------------------19------19--|---------------------------| 
--------19------------19-------|--------17----------17-----| 
--17---------------------------|--15-----------------------| 
 
 
                                                    
------------21--------------|---------------------| 
------14----------------19--|--17-----------------| 
--------------------19------|---------17----------| 
--17------------------------|--15-----------------| 
 
 
                                                                   
------17------24----------------|--------------24----------------| 
----------17--------22------22--|-----------22-------22------22--| 
--15--------------------22------|------22----------------22------| 
--------------------------------|--20----------------------------| 
 
 
                                                        
------------20------------|------------20-------------| 
--------------------------|---------------------------| 
-------18-----------18----|--------18----------18-----| 
--16----------------------|--16-----------------------| 
 
 
                                                              
------------22--------------|------------22-----------------| 
------15----------------20--|-------------------20------20--| 
--------------------20------|--------20------------20-------| 
--18------------------------|--18---------------------------| 
 
 
                                                          
------------20-------------|------------22--------------| 
---------------------------|------15----------------20--| 
--------18----------18-----|--------------------20------| 
--16-----------------------|--18------------------------| 
 
 
                                                                   
------17------24----------------|--------------24----------------| 
----------17--------22------22--|-----------22-------22------22--| 
------------------------22------|------22----------------22------| 
--20----------------------------|--20----------------------------| 
 
 
                                                        
------------20------------|------------20-------------| 
--------------------------|---------------------------| 
-------18-----------18----|--------18----------18-----| 
--16----------------------|--16-----------------------| 
 
 
                                                              
------------22--------------|------------22-----------------| 
------15----------------20--|-------------------20------20--| 
--------------------20------|--------20------------20-------| 
--18------------------------|--18---------------------------| 
 
 
                                                          
------------20-------------|------------22--------------| 
---------------------------|------15----------------20--| 
--------18----------18-----|--------------------20------| 
--16-----------------------|--18------------------------| 
 
 
                                                                   
------17------24----------------|--------------24----------------| 
----------17--------22------22--|-----------22-------22------22--| 
------------------------22------|------22----------------22------| 
--20----------------------------|--20----------------------------| 
 
 
                                                        
------------20------------|------------20-------------| 
--------------------------|---------------------------| 
-------18-----------18----|--------18----------18-----| 
--16----------------------|--16-----------------------| 
 
 
                                                              
------------22--------------|------------22-----------------| 
------15----------------20--|-------------------20------20--| 
--------------------20------|--------20------------20-------| 
--18------------------------|--18---------------------------| 
 
 
                                                          
------------20-------------|------------22--------------| 
---------------------------|------15----------------20--| 
--------18----------18-----|--------------------20------| 
--16-----------------------|--18------------------------| 
 
 
                                                                   
------17------24----------------|--------------24----------------| 
----------17--------22------22--|-----------22-------22------22--| 
------------------------22------|------22----------------22------| 
--20----------------------------|--20----------------------------| 
 
 
                                                        
------------20------------|------------20-------------| 
--------------------------|---------------------------| 
-------18-----------18----|--------18----------18-----| 
--16----------------------|--16-----------------------| 
 
 
                                                              
------------22--------------|------------22-----------------| 
------15----------------20--|-------------------20------20--| 
--------------------20------|--------20------------20-------| 
--18------------------------|--18---------------------------| 
 
 
                                                                              
------------20-------------|------------22--------------|------------------|| 
---------------------------|------15----------------20--|------------------|| 
--------18----------18-----|--------------------20------|------------------|| 
--16-----------------------|--18------------------------|------------------||

 A
        A        
ndy y Lucas

Este fichero es trabajo propio de su transcriptor y representa su interpretación personal de la canción. El material contenido en esta página es para exclusivo uso privado, por lo que se prohibe su reproducción o retransmisión, así como su uso para fines comerciales.