Vivo por ella (TAB) (3)


Bueno aqui les envio otra de mis colaboracione espero y
se de su
agrado.
Esta cancion me inspiro para empezar a tocar la guitarra
y actualmente el piano.
Y en gran parte se la dedico a una amiga la "Musica"
aunque suene absurdo.
Y por otra a mis padres y hermana que me han apoyado
para estudiar lo que
me gusta la musica.
Gracias




--4---4---4---4---L---2-|--2----4-0------|--0---0---0---0-------|
------------------------|----------------|------------------4---|
------------------------|----------------|----------------------|
------------------------|----------------|----------------------|
------------------------|----------------|----------------------|
------------------------|----------------|----------------------|



--0----------------|--4---4---4---4---L---2-|--2----7-0------|
-------4---2--0--L-|------------------------|----------------|
-------------------|------------------------|----------------|
-------------------|------------------------|----------------|
-------------------|------------------------|----------------|
-------------------|------------------------|----------------|



--0---0---0---0-------|--0----------------|--5---5---5---5---L---4-|
------------------4---|-------4---2--0--L-|------------------------|
----------------------|-------------------|------------------------|
----------------------|-------------------|------------------------|
----------------------|-------------------|------------------------|
----------------------|-------------------|------------------------|

--4----5-2------|--4---4---4---4---L---2-|--2----4-0------|
----------------|------------------------|----------------|
----------------|------------------------|----------------|
----------------|------------------------|----------------|
----------------|------------------------|----------------|
----------------|------------------------|----------------|


---0---0---0---0---0--|--0--------4--2--L-|--16---16---16---16---L---14-|
----------------------|-------4-----------|-----------------------------|
----------------------|-------------------|-----------------------------|
----------------------|-------------------|-----------------------------|
----------------------|-------------------|-----------------------------|
----------------------|-------------------|-----------------------------|


--14---16---------|---------------------------|----------------------|
----------17------|--17---17---17---17---16---|--17---16---14--------|
------------------|---------------------------|----------------16--L-|
------------------|---------------------------|----------------------|
------------------|---------------------------|----------------------|
------------------|---------------------------|----------------------|

--16---16---16---16---L---14-|--14---19---------|-----------------------|
-----------------------------|----------17------|--17---17---17---17-16-|
-----------------------------|------------------|-----------------------|
-----------------------------|------------------|-----------------------|
-----------------------------|------------------|-----------------------|
-----------------------------|------------------|-----------------------|

----------------------|--17---17---17---17---L---16-|--16---17-14------|
--17---16---14--------|-----------------------------|------------------|
----------------16--L-|-----------------------------|------------------|
----------------------|-----------------------------|------------------|
----------------------|-----------------------------|------------------|
----------------------|-----------------------------|------------------|


--16---16---16---16---L---14-|--14---16---------|-----------------------|
-----------------------------|----------17------|--17---17---17---17--17|
-----------------------------|------------------|-----------------------|
-----------------------------|------------------|-----------------------|
-----------------------------|------------------|-----------------------|
-----------------------------|------------------|-----------------------|

------------------16------|--14--12------|--L----L-----|-------4--6----|
--17---16---16-16----16---|--------------|-------------|---------------|
--------------------------|--------------|-------------|---------------|
--------------------------|--------------|-------------|---------------|
--------------------------|--------------|-------------|---------------|
--------------------------|--------------|-------------|---------------|

--8--9----11-------|--11---12----L-|--L--------|--L---L---19--21---|
--------------9----|---------------|-----------|-------------------|
-------------------|---------------|-----------|-------------------|
-------------------|---------------|-----------|-------------------|
-------------------|---------------|-----------|-------------------|
-------------------|---------------|-----------|-------------------|


--23--24---26--------|--26--28------|--L--------|--L----4--6----|
----------------24---|--------------|-----------|---------------|
---------------------|--------------|-----------|---------------|
---------------------|--------------|-----------|---------------|
---------------------|--------------|-----------|---------------|
---------------------|--------------|-----------|---------------|

--8--9----11-------|--11---12--L-------|--11------12--------|
--------------9----|-------------------|--------------------|
-------------------|---------------13--|---------------9--L-|
-------------------|-------------------|--------------------|
-------------------|-------------------|--------------------|
-------------------|-------------------|--------------------|


----7--L---9--------|---------------------|----------------|-----------|
--------------------|---------7--L---9----|----7------L--L-|--L--------|
--L------------9--L-|--L-9--L-------------|----------------|-----------|
--------------------|---------------------|----------------|-----------|
--------------------|---------------------|----------------|-----------|
--------------------|---------------------|----------------|-----------|

----18---18---18---18---L---16-L-|----16-18--------------|
--L------------------------------|------------19---------|
---------------------------------|-----------------------|
---------------------------------|-----------------------|
---------------------------------|-----------------------|
---------------------------------|-----------------------|

-----------------------------|------------------------|
----19---19---19-19-----18---|----19---18-16----------|
-----------------------------|----------------18--L---|
-----------------------------|------------------------|
-----------------------------|------------------------|
-----------------------------|------------------------|


----18---18---18---18---L---16-L-|----16-21--------------|
---------------------------------|------------19---------|
---------------------------------|-----------------------|
---------------------------------|-----------------------|
---------------------------------|-----------------------|
---------------------------------|-----------------------|

------------------------------|------------------------|
----19---19---19----19---18---|----19---18-------------|
------------------------------|------------20--18--L---|
------------------------------|------------------------|
----21---21---21-21------20---|----21---20-18--16--L---|
------------------------------|------------------------|

-------------------------------|-----------------------|
----12-------------------------|-----------------------|
----16-16---16---16---L---15-L-|----15-16---13---------|
-------------------------------|-----------------------|
-------------------------------|-----------------------|
-------------------------------|-----------------------|

---------------------------------|-----------------------|
---------------------------------|-------11--------------|
----15---15---15---15---L---13-L-|----13------11---------|
---------------------------------|-----------------------|
---------------------------------|-----------------------|
---------------------------------|-----------------------|

------------------------|-----------------------|----------18---20---22-|
------------------------|------------11--9--L---|----11-----------------|
11--11---11-11-----11---|----11---10------------|-----------------------|
------------------------|-----------------------|-----------------------|
------------------------|-----------------------|-----------------------|
------------------------|-----------------------|-----------------------|

--L--L-23---25--L-----------|----25---------26----------------|
--------------------23------|---------------------------------|
----------------------------|---------------------------------|
----------------------------|----20-20---20----20---18---18-L-|
----------------------------|---------------------------------|
----------------------------|---------------------------------|


----------------------|-----------21--23---25-|--L--L---26-28---21-28-|
----------------------|-----------------------|-----------------------|
-------15-------------|-----------------------|-----------------------|
--L---------16----L-L-|--L---L--L-------------|--------------------23-|
----------------------|-----------------------|-----------------------|
----------------------|-----------------------|-----------------------|


----------30----------------|--------------------|----------18----20-22-|
----------------------------|--------------------|----------------------|
----------------------------|-------18-----------|----------------------|
--23---23----23-----21---21-|--L-------20----L-L-|--L-------20----22-24-|
----------------------------|--------------------|----------------------|
----------------------------|--------------------|----------------------|


--L--L---23-25----18----|----------18--L---------|----16------18-------|
---------------------21-|--L--L----19--L---19----|----18------19---19--|
---------20-22-------22-|--L--L------------------|---------------------|
--L--L------------20----|------------------20----|-----------------20--|
------------------------|------------------------|---------------------|
------------------------|------------------------|---------------------|

----16--L-18-------|----16--L-17----L-|--L------L----|
--L-18--L-19---19--|----18--L-19----L-|--L------L----|
-------------------|------------------|--------------|
--L------------20--|------------------|--------------|
-------------------|------------------|--------------|
-------------------|------------------|--------------|



--15---15---15---15---14---14-|--L----15---12----L--L-|
------------------------------|-----------------------|
------------------------------|-----------------------|
------------------------------|-----------------------|
------------------------------|-----------------------|
------------------------------|-----------------------|

----14---14---14---14---12---12-L-|--L----14-------------|
----------------------------------|------------15----L---|
----------------------------------|----------------------|
----------------------------------|----------------------|
----------------------------------|----------------------|
----------------------------------|----------------------|

-----------------------------------|--------------------14--L-|
----15---15---15---15----15---15---|-------14---14---14-------|
-----------------------------------|--------------------------|
-----------------------------------|--------------------------|
-----------------------------------|--------------------------|
-----------------------------------|--------------------------|

-----------|-------2----2---14---12-L-|--L--10------L-|--L----|
-----------|--------------------------|---------------|-----------|
-----------|--------------------------|---------------|-----------|
-----------|--------------------------|---------------|-----------|
-----------|--------------------------|---------------|-----------|
-----------|--------------------------|---------------|-----------|





--L----L---------|----------17-------------|
------------10-L-|--L-10--L-22----20--L-19-|
------------14---|----14----------24----23-|
-----------------|-------------------------|
-----------------|-------------------------|
-----------------|-------------------------|


-----------7----9--11-|--L--L---12-14-------14-|
----------------------|------------------12----|
----------------------|------------------------|
----------------------|------------------------|
----------------------|------------------------|
----------------------|------------------------|


--L-19---19---19----19---17---17-|--L--19-----------|----------------|
-----------------20--------------|----------20----L-|--L--------17---|
---------------------------------|------------------|-------19-------|
---------------------------------|------------------|----------------|
---------------------------------|------------------|----------------|
---------------------------------|------------------|----------------|

-----------17--------|--22-22---22-22---20---20-|--L---22-19----L-|
--19--20-------------|--22------24--------------|-----------------|
----------------19---|--------------------------|-----------------|
---------------------|--------------------------|-----------------|
---------------------|--------------------------|-----------------|
---------------------|--------------------------|-----------------|

--L-----19--21---|--23--24---26--19---|--29-----------27--|
-----------------|--------------------|-------------------|
-----------------|--20--21---23-------|--23---24--L-------|
--------21--23---|---------------21---|---------------21--|
-----------------|--------------------|-------------------|
-----------------|--------------------|-------------------|

--29-----------22--L-|--L-26--L---27--------|-----------------19-L-|
---------------------|----------------------|------------22--------|
--23------24---------|------------21---24-L-|--L-24--L-------------|
---------------------|----24--L-------------|-----------------21-L-|
---------------22--L-|--L-------------------|------------24--------|
---------------------|-----------------24-L-|--L-24--L-------------|


--L-17------L--L-|--L--------|--L-------------|-----------|-----------|
-----------------|-----------|----------------|-----------|-----------|
-----------------|-----------|----------------|-----------|-----------|
--L-19------L--L-|--L--------|--L-------------|-----------|-----------|
-----------------|-----------|----------------|-----------|-----------|
-----------------|-----------|----------------|-----------|-----------|

-----------|----7---7---7---7---L---5--L-|----5--7-------------|
-----------|-----------------------------|-----------8---------|
-----------|-----------------------------|---------------------|
-----------|-----------------------------|---------------------|
-----------|-----------------------------|---------------------|
-----------|-----------------------------|---------------------|


--------------------|-----------0---------|----7---7---7---7---L---5--L-|
----8---8---8-8-----7---|----8----7-------|-----------------------------|
------------------------|--------------7--|-----------------------------|
------------------------|-----------------|-----------------------------|
------------------------|-----------------|-----------------------------|
------------------------|-----------------|-----------------------------|

----5--10-------------|------------------------|-----------0---------|
------------8---------|----8---8---8-8-----7---|----8----7-----------|
----------------------|------------------------|--------------7--L---|
----------------------|------------------------|---------------------|
----------------------|------------------------|---------------------|
----------------------|------------------------|---------------------|

----20---20---20---20---L---19-L-|----19-20---17---------|
---------------------------------|-----------------------|
---------------------------------|-----------------------|
---------------------------------|-----------------------|
---------------------------------|-----------------------|
---------------------------------|-----------------------|

----19---19---19---19---L---17-L-|----17-19--------------|
---------------------------------|------------20---------|
---------------------------------|-----------------------|
---------------------------------|-----------------------|
---------------------------------|-----------------------|
---------------------------------|-----------------------|

----------------------|---------------------------|------19----L--------|
20--20---20-20----20--|----20---19--L---19---19-L-|--L-------------19---|
----------------------|---------------------------|---------------------|
----------------------|---------------------------|---------------------|
----------------------|---------------------------|---------------------|
----------------------|---------------------------|---------------------|

----------19--L-17--L---|----17---------15----------------|
----19--L---------------|---------------------------------|
------------------------|----16-16---16----16---14---14-L-|
------------------------|---------------------------------|
------------------------|---------------------------------|
------------------------|---------------------------------|

----------------------|--------------10---|----10--L-22----20----|
-------12-------------|-------------------|----------------------|
--L---------12----L-L-|--L----L--L--------|----------------------|
----------------------|-------------------|----------------------|
----------------------|-------------------|----------------------|
----------------------|-------------------|----------------------|

--19-----------------|-----------------|--------------|-----19----L--24-|
---------------------|------15---------|--------------|-----------------|
19-19-19-19--17---17-|--L------16----L-|--L-----------|-----------------|
---------------------|-----------------|--------------|-----------------|
---------------------|-----------------|--------------|-----------------|
---------------------|-----------------|--------------|-----------------|


--L---------------|----------------|-------------|----------------19--L-|
-------24---L-----|----------------|-------------|----------22----------|
--------------24--|----24------L---|---------24--|----24--L-------------|
------------------|----------------|-------------|----------------21--L-|
------------------|----------------|---------22--|----22--L-24----------|
------------------|----------------|-------------|----------------------|

----17------L--|--L--------|------------|----7----5---L---15-|
---------------|-----------|---------3--|--------------------|
---------------|-----------|------------|--------------------|
----19------L--|--L--------|------------|--------------------|
---------------|-----------|------------|--------------------|
---------------|-----------|------------|--------------------|

--L-15----L-------|---------------------|-------------|----------------||
------------------|---------------------|-------------|----------------||
------------------|---------------------|-------------|----------------||
------------14--L-|--L---12---10---L-9--|----7------L-|--L-------------||
------------------|---------------------|-------------|----------------||
------------------|---------------------|-------------|----------------||

 A
        A        
ndrea B
        B        
ocelli

Este fichero es trabajo propio de su transcriptor y representa su interpretación personal de la canción. El material contenido en esta página es para exclusivo uso privado, por lo que se prohibe su reproducción o retransmisión, así como su uso para fines comerciales.



Buscar canción en YouTube Buscar cover en YouTube


Más canciones