Hoy te vi (TAB)


Tablatura
e|-0---0-0-0-3-3-1-1-0-------0---0-0---0-0-0-3-3-1-1-1-0-------0--------|
B|---3-----------------3-1-3---------3-------------------3-1-3----------|
G|----------------------------------------------------------------------|
D|----------------------------------------------------------------------|
A|----------------------------------------------------------------------|
E|----------------------------------------------------------------------|

e|-0-0---0-0-0-3-3-1-1-0-------0---0-0---0-0-0-3-3-1-1-1-0-------0------|
B|-----3-----------------3-1-3---------3-------------------3-1-3--------|
G|----------------------------------------------------------------------|
D|----------------------------------------------------------------------|
A|----------------------------------------------------------------------|
E|----------------------------------------------------------------------|

e|-0-8-7-8-0-0-8-7-8-1-10-10-10-8-8-7-7-5-7-8-7-5-----------------------|
B|----------------------------------------------------------------------|
G|----------------------------------------------------------------------|
D|----------------------------------------------------------------------|
A|----------------------------------------------------------------------|
E|----------------------------------------------------------------------|

e|-0-8-7-8-0-0-8-7-8-1-10-10-10-8-8-7-7-5-7-8---------------------------|
B|----------------------------------------------------------------------|
G|----------------------------------------------------------------------|
D|----------------------------------------------------------------------|
A|----------------------------------------------------------------------|
E|----------------------------------------------------------------------|

Acordes
       Am
       Am       
  A7
       A7       
  Dm
       Dm       
  Hoy te vi, y una pregunta nacio dentro de mi G7
       G7       
  Am
       Am       
   E
        E        
Am
       Am       
  que pasara, con esta vida que no quieres ya vivir Am
       Am       
  A7
       A7       
  Dm
       Dm       
  a donde iras, si tu camino se aleja mas de mi G7
       G7       
  Am
       Am       
   E
        E        
Am
       Am       
  quiero llorar, porque mi muerte no has sabido aprovechar. Am
       Am       
  Dm
       Dm       
  Como es posible, que me olvidaras  E
        E        
Am
       Am       
  en los momentos, de soledad Am
       Am       
  Dm
       Dm       
  si aun existo, si yo no he muerto  E
        E        
Am
       Am       
  que sigo vivo, por siempre en ti. Am
       Am       
  A7
       A7       
  Dm
       Dm       
  No llores mas, abre tus ojos a esta realidad G7
       G7       
  Am
       Am       
   E
        E        
Am
       Am       
  vuelve asi mi, la vida es corta y debemos sonreir Am
       Am       
  A7
       A7       
  Dm
       Dm       
  yo soy amor, y estoy contigo dentro de tu corazon G7
       G7       
  Am
       Am       
   E
        E        
Am
       Am       
  entrega amor, que basta ya! de odio y de rencor. Am
       Am       
  Dm
       Dm       
  Como es posible, que me olvidaras  E
        E        
Am
       Am       
  en los momentos, de soledad Am
       Am       
  Dm
       Dm       
  si aun existo, si yo no he muerto  E
        E        
Am
       Am       
  que sigo vivo por siempre en ti. Am
       Am       
  Dm
       Dm       
  Como es posible, que me olvidaras  E
        E        
Am
       Am       
  en los momentos, de soledad Am
       Am       
  Dm
       Dm       
  si aun existo, si yo no he muerto  E
        E        
Am
       Am       
  que sigo vivo, por siempre en ti. e|-0-8-7-8-0-0-8-7-8-1-10-10-10-8-8-7-7-5-7-8-7-5-----------------------| B|----------------------------------------------------------------------| G|----------------------------------------------------------------------| D|----------------------------------------------------------------------| A|----------------------------------------------------------------------| E|----------------------------------------------------------------------| Bueno pues esta cancion a mi se me hace muy linda y pues me a ayudado mucho lo que dice su letra por eso quise venir a compartirselas y pues mientras sean cosas del señor esta bien. Espero y les agrade.

 A
        A        
ndrea B
        B        
ocelli

Este fichero es trabajo propio de su transcriptor y representa su interpretación personal de la canción. El material contenido en esta página es para exclusivo uso privado, por lo que se prohibe su reproducción o retransmisión, así como su uso para fines comerciales.



Buscar canción en YouTube Buscar cover en YouTube


Más canciones