Con te partiro (TAB)


Por cristhian! 
Raita 1 
 
E||------|----|--------------|--------|----------| 
B||------|----|--------------|--------|----------| 
G||------|----|--------------|--------|----------| 
D||------|----|--------------|--------|----------| 
A||------|----|--------------|--------|----------| 
E||------|----|--------------|--------|----------| 
 
 
 
----------------------------------|----------------------------| 
----------------------------------|--1-------------------------| 
------------------------2-----2-4-|-------4--------------------| 
------2---2-4-2-4-5-4-5---5-2-----|----------------2---2-4-2-4-| 
--3-5---5-------------------------|------------3-5---5---------| 
----------------------------------|----------------------------| 
 
 
 
----------------------------|-------------------------|-------------| 
------------------1---------|--------------1----------|-------------| 
--------2-----2-4------4----|-------------------4-----|-------------| 
--5-4-5---5-2---------------|--5--4-2-4-----------2---|--2---2-4----| 
----------------------------|-------------------------|-------------| 
----------------------------|-------------------------|-------------| 
 
 
 
-------------------------|--------------------------------| 
-------------------------|--------------------------------| 
-------------------------|-----------------4--5-----------| 
--0------2-----------5-4-|------------------------5-5-4---| 
-----------5-5--5--------|--5--5--5--5--5-----------------| 
-------------------------|--------------------------------| 
 
 
 
------------------------------|------------------------------|----------| 
------------------------------|------------------------------|----------| 
---------------------------2--|---------2--4--5--------------|----------| 
---------------------5--4-----|--2---------------5--5--5-4---|----------| 
--5--5----7--5--5-------------|------------------------------|----------| 
------------------------------|------------------------------|----------| 
 
 
 
----------------------|--------------------|-------------------------| 
----------------------|--------------------|-------------------1-----| 
-------------------2--|-----------------2--|--4--4----------2-----4--| 
-------5--------4-----|--5-----------------|-------------------------| 
--5-------------------|--------------------|-------------------------| 
----------------------|--------------------|-------------------------| 
 
 
 
---------3--2-----3--2--------|-----------------------------| 
---------------3--------3--0--|--3-----------1--0-----------| 
------------------------------|-----------2--------2--0-----| 
--5---------------------------|--------------------------4--| 
------------------------------|-----------------------------| 
------------------------------|-----------------------------| 
 
 
 
-----------------------|--------------------|------------------------------| 
-----------------------|--------------------|--0--0--0--0--0---------1--0--| 
-----0--0-----------2--|-----------------2--|---------------------2--------| 
--0--------------4-----|--5-----------------|------------------------------| 
-----------------------|--------------------|------------------------------| 
-----------------------|--------------------|------------------------------| 
 
 
 
---------3--2-----3--2--------|---------------------------------| 
---------------3--------3--0--|--3-----------1------------------| 
------------------------------|-----------2-----4--2------------| 
--5---------------------------|-----------------------5--4------| 
------------------------------|---------------------------------| 
------------------------------|---------------------------------| 
 
 
 
----------------------------------|------------|-----------------------------| 
----------------------------------|--1----0----|-----------------------------| 
------------------------2-----2-4-|------------|------------------2-----4----| 
------2---2-4-2-4-5-4-5---5-2-----|------------|------2---2-4-2-4-----5------| 
--3-5---5-------------------------|------------|--3-5---5--------------------| 
----------------------------------|------------|-----------------------------| 
 
 
 
---------------------------|------------------------------| 
---------------------------|------------------------------| 
---------------------------|------------------2-----4---2-| 
------2---2-4-2-4-5--------|------2---2-4-2-4-----5-------| 
--3-5---5------------------|--3-5---5---------------------| 
---------------------------|------------------------------| 
 
 
 
---------------------|----------------------|--------------------| 
--1------------------|----------------------|--------------------| 
------4--------------|-------------------2--|-----------------2--| 
--------0------------|-------5--------4-----|--5-----------------| 
---------------------|--5-------------------|--------------------| 
---------------------|----------------------|--------------------| 
 
 
 
-------------------------|---------3--2-----3--2--------| 
-------------------1-----|---------------3--------3--0--| 
--4--4----------2-----4--|------------------------------| 
-------------------------|--5---------------------------| 
-------------------------|------------------------------| 
-------------------------|------------------------------| 
 
 
 
-----------------------------|-----------------------|--------------------| 
--3-----------1--0-----------|-----------------------|--------------------| 
-----------2--------2--0-----|-----0--0-----------2--|-----------------2--| 
--------------------------4--|--0--------------4-----|--5-----------------| 
-----------------------------|-----------------------|--------------------| 
-----------------------------|-----------------------|--------------------| 
 
 
 
------------------------------|---------3--2-----3--2--------| 
--0--0--0--0--0---------1--0--|---------------3--------3--0--| 
---------------------2--------|------------------------------| 
------------------------------|--5---------------------------| 
------------------------------|------------------------------| 
------------------------------|------------------------------| 
 
 
 
-----------------------------|-----------------------|--------------------| 
--3-----------1--0-----------|--------------------0--|--------------------| 
--4--------2--------2--0-----|-----2--2--------1-----|--2--------------4--| 
--5-----------------------4--|--2--------------------|--------------------| 
-----------------------------|-----------------------|--------------------| 
-----------------------------|-----------------------|--------------------| 
 
 
 
------------------------------|---------5--4-----5--4--------| 
------------------------3-----|---------------5--------5--2--| 
--6--6--6--6--6------4-----6--|--2---------------------------| 
------------------------------|------------------------------| 
------------------------------|------------------------------| 
------------------------------|------------------------------| 
 
 
 
-----------------------------|-----------------------|-------------------| 
--5-----------3--2-----------|-----------------------|-------------------| 
-----------4--------4--2-----|-----2--2-----------4--|-------------------| 
--------------------------6--|--2--------------6-----|--7----------------| 
-----------------------------|-----------------------|-------------------| 
-----------------------------|-----------------------|-------------------| 
 
 
 
------------------|------------------|--------0--2----4----|--5----------------| 
------------------|------------------|---------------------|-------------------| 
------------------|------------------|---------------------|-------------------| 
------------------|------------------|---------------------|-------------------| 
------------------|------------------|---------------------|-------------------| 
------------------|------------------|---------------------|-------------------| 
 
 
 
------------------|------------------|------|| 
------------------|------------------|------|| 
------------------|------------------|------|| 
------------------|------------------|------|| 
------------------|------------------|------|| 
------------------|------------------|------||

 A
        A        
ndrea B
        B        
ocelli

Este fichero es trabajo propio de su transcriptor y representa su interpretación personal de la canción. El material contenido en esta página es para exclusivo uso privado, por lo que se prohibe su reproducción o retransmisión, así como su uso para fines comerciales.



Buscar canción en YouTube Buscar cover en YouTube


Más canciones