Un viejo amor (TAB) (2)


e------------------------------------------------------------------------
B------------------------------------------------------------------------
G--------------------------------------2-2-------------2-2-2-------------
D-0-0-0--4-4-4-5----------4-4-4-5------------------------------------0/-]
A----------------5-/-5-5-5---------0-/----4-4-2-2-4-0/-------4-4-4-2-----
E------------------------------------------------------------------------


e------------------------------------------------------------------------
B------------------------------------------------------------------------
G----------------------------------0-0-0-0-------------------------------
D-0-0-0-0-4-4-5----------4-4-4-5-----------------0/-0-0------------------
A---------------5/-5-5-5-------------------0-0-2--------5-0-0-4-2-5------
E--------------------------------3/--------------------------------------



       D
        D        
Por unos ojasos negros A7
       A7       
  igual que penas de amores hace tiempo tuve anhelos  D
        D        
alegrias y sin sabores] al mirarlos algun dia  D7
       D7       
 G
        G        
me decian casi llorando A7
       A7       
   D
        D        
no te olvides vida mia A7
       A7       
   D
        D        
de lo que hoy te estoy cantando.  D
        D        
A7
       A7       
  Que un viejo amor  D
        D        
no se olvida ni se deja A7
       A7       
  que un viejo amor  D
        D        
de nuestra alma si se aleja A7
       A7       
   D
        D        
pero nunca dice adios A7
       A7       
   D
        D        
un viejo amor.  D
        D        
Ha pasado mucho tiempo A7
       A7       
  volvi a ver aquellos ojos me miraron con desprecio  D
        D        
friamente y sin enojo al notar aquel desprecio  D7
       D7       
 G
        G        
de ojos que por mi lloraron A7
       A7       
   D
        D        
comprendi que con el tiempo A7
       A7       
   D
        D        
mi recuerdo se ha olvidado.  D
        D        
A7
       A7       
  Que un viejo amor  D
        D        
no se olvida ni se deja A7
       A7       
  que un viejo amor  D
        D        
de nuestra alma si se aleja A7
       A7       
   D
        D        
pero nunca dice adios A7
       A7       
   D
        D        
un viejo amor.

 A
        A        
na G
        G        
abriel

Este fichero es trabajo propio de su transcriptor y representa su interpretación personal de la canción. El material contenido en esta página es para exclusivo uso privado, por lo que se prohibe su reproducción o retransmisión, así como su uso para fines comerciales.