Sólo le pido a Dios (TAB) (2)


Cuidado!! La letra de la canción no esta muy bien situada
respecto al pentagrama. D
        D        
isfrutadla!!  A
        A        
D9
       D9       
   A
        A        
 A
        A        
 E
        E        
|----------0-----------0------------0------------0-------  B
        B        
|------2-----2------3----3------2-----2------2-----2-----  G
        G        
|----2---2-------2---2--------2---2--------2---2---------  D
        D        
|--2-----------0------------2------------2---------------  A
        A        
|--------------------------------------------------------  E
        E        
|-------------------------------------------------------- Solo le pido a D
        D        
ios  D
        D        
C#m
       C#m       
  Bm
       Bm       
  Bm
       Bm       
   E
        E        
|----------2------------4------------2------------2------  B
        B        
|------3-----3------5-----5------3-----3------3-----3----  G
        G        
|----2---2--------6---6--------4---4--------4---4--------  D
        D        
|--0------------6------------4------------4--------------  A
        A        
|--------------------------------------------------------  E
        E        
|-------------------------------------------------------- que en la guerra no me sea indiferente  D
        D        
 A
        A        
 E
        E        
 E
        E        
 E
        E        
|----------2------------0------------0------------0------  B
        B        
|------3-----3------2-----2------0-----0------0-----0----  G
        G        
|----2---2--------2---2--------1---1--------1---1--------  D
        D        
|--0------------2------------2------------2--------------  A
        A        
|--------------------------------------------------------  E
        E        
|-------------------------------------------------------- es un monstruo grande y pisa fuerte  D
        D        
C#m
       C#m       
  F#m
       F#m       
  F#m
       F#m       
   E
        E        
|----------2------------4------------2------------2------  B
        B        
|------3-----3------5-----5------2-----2------2-----2----  G
        G        
|----2---2--------6---6--------2---2--------2---2--------  D
        D        
|--0------------6------------4------------4--------------  A
        A        
|--------------------------------------------------------  E
        E        
|-------------------------------------------------------- toda la pobre inocencia de la gente

 A
        A        
na B
        B        
elén

Este fichero es trabajo propio de su transcriptor y representa su interpretación personal de la canción. El material contenido en esta página es para exclusivo uso privado, por lo que se prohibe su reproducción o retransmisión, así como su uso para fines comerciales.