Traicionera (TAB) (3)


hola me llamo alfredo y esta es mi primera partitura
Intro:

e:------------------------------------------I
B:-----------5h7---5---5---5---5---7---7----I
G:---------6-----6---6---6---6---6---6---6--I
D:---/666-----------------------------------I
A:------------------------------------------I
E:------------------------------------------I

e:------------------------------------------I
B:-----------5h7---5---5---5---5---4---4----I
G:---------6-----6---6---6---6---5---5---5--I
D:---/777-----------------------------------I
A:------------------------------------------I
E:------------------------------------------I

e:-------------12h14-----12---12---12---12---14---14----I
b:---------14---------14---14---14---14---14---14---14--I
g:/131313-----------------------------------------------I
d:------------------------------------------------------I
a:------------------------------------------------------I
e:------------------------------------------------------I

e:-------------12h14-----12---12---12---12---11---11----I
b:---------14---------14---14---14---14---13---13---13--I
g:/141414-----------------------------------------------I
d:------------------------------------------------------I
a:------------------------------------------------------I
e:------------------------------------------------------I

las trompetas
siento que te quiero...


bueno ay sta el intro de traicionera nadie mas lo habia sacado XD
        D        
  y ay sta UN SALUDO
       DO       
 PA
        A        
 ZAPALLAR Y A
        A        
 C
        C        
ELEBBRAR LA
       LA       
 CUMBIA!!! XAO

 Am
       Am       
érico

Este fichero es trabajo propio de su transcriptor y representa su interpretación personal de la canción. El material contenido en esta página es para exclusivo uso privado, por lo que se prohibe su reproducción o retransmisión, así como su uso para fines comerciales.