Rock and roll (TAB) (2)


SOLO::
|-----------------------------------------------------------------|
|-----------------------------------------------------------------|
|----------------------------------------------5----------5—7p5---|
|---------------------------------5---5--7---7----7---5-7---------|
|-----------------3--5^.-------7----------------------------------|
|--3^.--3-----3-5-------------------------------------------------|

|-----------------------------------------------------------------|
|-----------------------------------------------------------------|
|-5.....7p5-7p5...--------88888...----8p7-7-----------------------|
|------------------5------77777...------------7p5---5-------------|
|-------------------------------------------------7-----7p5--5----|
|-----------------------------------------------------------8-----|

|----------------17vib-17vib-17vib--17vib--17----22^-22--20-17---------|
|---------------------------------------------20---------------20-17---|
|----------------------------------------------------------------------|
|----------------------------------------------------------------------|
|----------------------------------------------------------------------|
|-8-8-5-8-5--5---------------------------------------------------------|

|----------------------------------17-17-17----------------------------|
|-------------------------------------------17-17-17-------------------|
|--19^-19^----17-19-20-21-22-21----------------------17-17-17----------|
|----------19-------------------------------------------------19-19-19-|
|----------------------------------------------------------------------|
|----------------------------------------------------------------------|
|----------------------------------------------------------------------|

 Am
       Am       
en

Este fichero es trabajo propio de su transcriptor y representa su interpretación personal de la canción. El material contenido en esta página es para exclusivo uso privado, por lo que se prohibe su reproducción o retransmisión, así como su uso para fines comerciales.