Pan con mantequilla (BAJ) (4)


(A)
|----------------------------------------------------------------------
|-------------------------7s0-----7s0----------------------------------
|-------7s0------7s0--3-3-----3-3---------7s0------7s0------7s0-----7s0
|--3-3-------3-3----------------------3-3------3-3------3-3-----3-3----

---------------------------------------------------------------------–
------7s0------7s0------7s0------7s0----------------------------------
-3-3-------3-3------3-3------3-3---------7s0------7s0------7s0-----7s0
-------------------------------------3-3------3-3------3-3-----3-3----

---------------------------------------|
------9s0------9s0-------7s0-----7s0---|
-5-5-------5-5------3-3------3-3-------|
---------------------------------------|

---------------------------------|
---------------------------------|
-10-10--8-8--7-7--6-6--5-5-5-5---|
---------------------------------|

ESTROFA:
|----------------------------------------------------------------------|
|----------------------------------------------------------------------|
|-----------------3-3-3-3-3--3-1----------------------------1-2--------|
|-3-3-3-3-3-3-3-3----------------3-3-3-3-3-3-3-3-3-3-3--3-5------------|

|----------------------------------------------------------------------|
|--------------------------------------5-5-3-3-------------------------|
|--3-3-3-3-3-3-3-3-3-3-3-3-3--3-1---------------5-3--------1-1-2-2-3-3-|
|----------------------------------3-3--------------5--3-3-------------|

|----------------------------------------------------------------------|
|-----------------------------------------------------------3-5--------|
|-5-5-5-5-5-5-5-5-5-5--3-------------2-2-3-3-4-4------3-4-5-----5-4-3--|
|-------------------------12s0--3-3---------------3-6-----------------6|

(B).
|----------------------------------------------------------------------|
|---------------------------------5-5-3-3------------------------------|
|---------------3-3-3-3-3-1---------------5-3---------------1-1-2-2----|
|-3-3-3-3-3-3-3--------------3-3---------------5-3--3-3-5-5------------|

|------5-5-3-3------------5-5-3-3--------------------------------------|
|--------------5-3----------------5-3-------5-5-3-3--------------------|
|-3-3--------------5-3-3--------------5-------------5-3-------1-1-2-2--|
|---------------------------------------3-3-------------5-3-3----------|

|-----------7-7-5-5------------------------------------------|
|-------------------7-5--------------------------------------|
|-3-3--5-5--------------7-5--------------2-2-3-3-4-4-5-5-5-5-|
|------------------------------12s0--3-3---------------------|

SOLO:
|----------------------------------------------------------------------|
|---------------------------------5-5-3-3------------------------------|
|---------------3-3-3-3-3-1---------------5-3---------------1-1-2-2----|
|-3-3-3-3-3-3-3--------------3-3---------------5-3--3-3-5-5------------|

|------5-5-3-3---------------------------------------------------------|
|--------------5-3-------2-2-3-3-4-4------5-5-3-3----------------------|
|-3-3--------------5-3-3--------------------------5-3-------1-1-2-2-3-3|
|------------------------------------3-3--------------5-3-3------------|

|-----7-7-5-5--------------------------------------------|
|-------------7-5----------------------------------------|
|-5-5-------------7-5-------------2-2-3-3-4-4-5-5-5-5-5--|
|-----------------------12s0-—3-3------------------------|

|------------------------------------------------------------------
|--5-3-------------------------------------------------------------
|------6-5-3-----------------------3-5-3-----5-3-------------------
|------------6-5-3--33-1-0--33-5-6-------6-3-----6-3--33-1-0--33-1-

-------------------------------------7-7-7-7-7-7-5----------|
––––––––––––––––––––––––––––––––––––––––––––––-----7-5------|
------3-5-3------5-3------------3-5--------------------7-5--|
--5-6--------6-3-----6-3--3-5-6-----------------------------|

------------->(B).

------------------->(A).

|-----------------------77777777-5----------|
|----------------------------------7-5------|
|-----222-333-444-555------------------7-5--|
|-333---------------------------------------|

(B) Y A
        A        
CABA C
        C        
ON: -----------------------------| -----------------------------| -10-10--8-8--7-7--6-6--5-----| ----------------------------3|

 Am
       Am       
en

Este fichero es trabajo propio de su transcriptor y representa su interpretación personal de la canción. El material contenido en esta página es para exclusivo uso privado, por lo que se prohibe su reproducción o retransmisión, así como su uso para fines comerciales.