Milagros (BAJ) (4)


bueno esta es mi primera transcripción de amen.... de la canción
milagros ojala les sea útil.....

AMEN - Milagros

VERSOS:

G------------------------------------------------------
D------------------------------------------------------
A--------------101010----------------------10-10101010-
E-888-10-1010----------8--888--555--101010-------------

CORO

G------------------------------------------------------
D------------------------------------------------------
A--------------101010----------------------10-10101010-
E-888-10-1010----------8--888--555--101010-------------



Todo es igual en toda la canción..... un saludo para ventanilla
el barrio de la ex zona comercial...... para todos mis brother....

Cualquier cosa  ahí esta mi correo jean_navarro_1995

 Am
       Am       
en

Este fichero es trabajo propio de su transcriptor y representa su interpretación personal de la canción. El material contenido en esta página es para exclusivo uso privado, por lo que se prohibe su reproducción o retransmisión, así como su uso para fines comerciales.