Libre (TAB) (3)


Amen - libre

Este es el solo de la cancion  se k no
esta perfecto pero laparte delos bajos si k esta bien
espero en  estos dias sacarla bien al completo..

    (x3)
e---------------------------------
b---------------------------------
g---------------------------------
d--------6------6-4---------------
a-------------------6-4-----------
E----0-4--------------------------



     (x2)
e---------------------------------
b---------------------------------
g---------------------------------
d--------6-----------4-6----------
a---------------------------------
E----0-4--------------------------


e----------------------------------------10/12--
b-----------------------------------------------
g-----------------------------------------------
d--3-2-0-------------------2--------------------
a--------3-2-0-2-3-0-2-3-5---5-3-2-0------------
E-----------------------------------------------


e----------------------------------------------8-----12-11-10-9--
b---------------------------------------8----10--10--------------
g-----------------------------------5-7---7----------------------
d------2--------3---------5-7-----7------------------------------
a--0230----0230-----0230-----------------------------------------
E----------------------------------------------------------------



e-----8--------8-------------------------------------
b--8/9-9---8/10-10-------8---------------------------
g---------------------8/9--9-------------------------
d-------------------------------9/10—9/10-9/10-9/10/9
a----------------------------------------------------
E----------------------------------------------------

 Am
       Am       
en

Este fichero es trabajo propio de su transcriptor y representa su interpretación personal de la canción. El material contenido en esta página es para exclusivo uso privado, por lo que se prohibe su reproducción o retransmisión, así como su uso para fines comerciales.