La Chata (BAJ) (2)


INTRO:

G-14b16r14-12-11---------------------------------------------
D----------------12~-----------------------------------------
A----------------------10~-----------------------------------
E------------------------------------------------------------

CANTO:
G------------------------------------------------------------
D------------------------------------------------------------
A-5~----5~----2~----2~---------------------------------------
E-------------------------3~----33~----5----55~--------------

G------------------------------------------------------------
D------------------------------------------------------------
A-5-5-55-5~--2-2-22-2~---------------------------------------
E-----------------------3-3-33-3~--5-5-55-5/-----------------

CORO:
G------------------------------------------------------------
D------------------------------------------------------------
A--------55555555...-22222222...-----------------------------
E-5-5-5--------------------------33333333...-55555555...-----

(SOLO)
G------------------------------------------------------------
D------------------------------------------------------------
A-5-55-5-55-3-2-22-2-22--------------------------------------
E-----------------------3-33-3-33--5-55-5~-------------------

CANTO:
G------------------------------------------------------------
D------------------------------------------------------------
A-5-5-55-5~---2~-2-22-2~-------------------------------------
E-------------------------33333333...-55555555...------------

(REPITE C
        C        
ORO x2) FINAL: G------------------------------------------------------------ D------------------------------------------------------------ A------10~-------10~-------10~------------------------------- E-10--------10--------10---------/10~------------------------

 Am
       Am       
en

Este fichero es trabajo propio de su transcriptor y representa su interpretación personal de la canción. El material contenido en esta página es para exclusivo uso privado, por lo que se prohibe su reproducción o retransmisión, así como su uso para fines comerciales.