Decir Adios (TAB) (7)


KRLOS.KM6.NET
  KRLOS-CORTEZ.HI5.COM
  sic_stone_sour
  Nota: si es q aparece en la tab numeros juntos es q
  va un back slash ..no se q tendra la pagina q cada vez
  q lo pongo me lo borra , este es el intento nro 6458
  y ya pex no me qda mas q hacer una nota pa q despues no me
  digan q esta mal la tablatura

 Intro
 E
        E        
|-----------------|  B
        B        
|-----------------|  G
        G        
|--------0--------|  D
        D        
|---0h2-----2-----|  A
        A        
|--------------0--|  E
        E        
|----------------0| (ARPEGIO)  G
        G        
300022
 D
        D        
200030
Em
       Em       
 022030
Bm
       Bm       
 x24432
 C
        C        
x32013
 G
        G        
320033
 D
        D        
x00230
 D
        D        
ecir adios  G
        G        
 D
        D        
 F
        F        
ue dificil para mi Em
       Em       
  Bm
       Bm       
  porque te quise desde que te conoci  C
        C        
 G
        G        
 D
        D        
------------------------------------------------------- (ARPEGIO)  G
        G        
300022
 D
        D        
200030
 E
        E        
|--3/53-0-3----|  B
        B        
|--3/53-0-3----|  G
        G        
|--x-x-x-x-x----|  D
        D        
|---------------|  A
        A        
|---------------|  E
        E        
|---------------| Em
       Em       
 022030
Bm
       Bm       
 x24432
 D
        D        
* xxx232(Power)
 C
        C        
x32013
 G
        G        
320033
(RASGUEO)  D
        D        
x00232 x00232 x00232 x00233 x00232,x00232 x00232 x00232 x00233 x00232
 E
        E        
stoy aqui  G
        G        
 D
        D        
pensando solo en ti Em
       Em       
  Bm
       Bm       
 D* y tus recuerdos lo son todo para mi  C
        C        
 G
        G        
 D
        D        
 E
        E        
|--------|  B
        B        
|--------|  G
        G        
|--------|  D
        D        
|--------|  A
        A        
|-0-2-3--|  E
        E        
|--------| ------------------------------------------------------- (RASGUEO)  C
        C        
x32010
 G
        G        
320033
 C
        C        
x32013
 D
        D        
x00232
 D
        D        
e que sirve querer si despues vas a fallar  C
        C        
 G
        G        
no quise terminar pero lo tengo que aceptar  C
        C        
 D
        D        
------------------------------------------------------- (ARPEGIO)  G
        G        
300022
 D
        D        
200030
Em
       Em       
 022030
Bm
       Bm       
 x24432
 C
        C        
x32013
 G
        G        
320033
 D
        D        
x00230
Tu ausencia ya  G
        G        
 D
        D        
puso en llanto mi corazon Em
       Em       
  Bm
       Bm       
  con el recuerdo que tuvimos tu y yo  C
        C        
 G
        G        
 D
        D        
------------------------------------------------------- (ARPEGIO)  G
        G        
300022
 D
        D        
200030
 E
        E        
|--3/53-0-3----|  B
        B        
|--3/53-0-3----|  G
        G        
|--0-0-0-0-0----|  D
        D        
|---------------|  A
        A        
|---------------|  E
        E        
|---------------| Em
       Em       
 022030
Bm
       Bm       
 x24432
Re xxx232(Power)  C
        C        
x32013
 G
        G        
320033
(RASGUEO)  D
        D        
x00232 x00232 x00232 x00233 x00232,x00232 x00232 x00232 x00233 x00232
Pasaran los dias  G
        G        
 D
        D        
y tu voz quedara en cada rincon Em
       Em       
  Bm
       Bm       
 D* y esos susurros cuando haciamos el amor  C
        C        
 G
        G        
 D
        D        
------------------------------------------------------- (RASGUEO)  C
        C        
x32010
 G
        G        
320033
 C
        C        
x32013
 D
        D        
x00232
 D
        D        
ificil de pensar que ya nunca volveras  C
        C        
 G
        G        
tus alas volaran y en otro cielo sufriran  C
        C        
 D
        D        
------------------------------------------------------- coro: Y la verdad es que me siento solo  G
        G        
 D
        D        
pues nunca te podre olvidar Em
       Em       
   C
        C        
Y la verdad es que me siento libre aunque las noches sean de soledad Y la verdad es que te llevo adentro pues ocupaste tu lugar Y por tu bien espero que no vuelvas pues la vas a pasar muy mal e|------------------------------------  B
        B        
|------------------------8-7-5-------  G
        G        
|--------4-5-4-----------------7-----  D
        D        
|---5-7--------7-5.------------------  A
        A        
|------------------------------------  E
        E        
|------------------------------------ e|------------------------------------  B
        B        
|----5/75/75/75-------------------  G
        G        
|------------------------------------  D
        D        
|------------------------------------  A
        A        
|------------------------------------  E
        E        
|------------------------------------ e|--0------------------2--------------  B
        B        
|----3---3-------3------3---3--------  G
        G        
|------2---2.-2.---2------2----------  D
        D        
|------------------------------------  A
        A        
|------------------------------------  E
        E        
|------------------------------------ e|------------------------------------  B
        B        
|------------------------------------  G
        G        
|------------------------------------  D
        D        
|-2/5-7^.-2/5-5-5-52----------------  A
        A        
|------------------------------------  E
        E        
|------------------------------------ e|------------------------------------  B
        B        
|------3------5-------7------8-------  G
        G        
|------------------------------------  D
        D        
|------------------------------------  A
        A        
|-2/4---4/5-----5/7----7/9-----------  E
        E        
|------------------------------------ e|---------5/7-5----------------------  B
        B        
|------------------------------------  G
        G        
|------------------------------------  D
        D        
|-7/9-7----------7/9-7/97-5.--------  A
        A        
|------------------------------------  E
        E        
|------------------------------------ e|----10^--8---------10^-8------------  B
        B        
|-------------10^-8------------------  G
        G        
|------------------------------------  D
        D        
|------------------------------------  A
        A        
|------------------------------------  E
        E        
|------------------------------------ e|----------------------10/12---------  B
        B        
|--10^8-8-8-8.-5-8-7.----------------  G
        G        
|------------------------------------  D
        D        
|------------------------------------  A
        A        
|------------------------------------  E
        E        
|------------------------------------ e|--8-10------------------------------  B
        B        
|--------10^-8.8--7--12^-------------  G
        G        
|------------------------------------  D
        D        
|------------------------------------  A
        A        
|------------------------------------  E
        E        
|------------------------------------  D
        D        
onde estaras no me llega a interesar pues tu bien sabes me la tienes que pagar Y lloraras es tu conciencia envenenada esta acabando lentamente con tu alma Pero la verdad no te deseo ningun mal pues algun cabron ya te las hara pagar ohhhh Repite coro: Pues habra otra ocupando tu lugar Em
       Em       
   C
        C        
 D
        D        
 G
        G        


 Am
       Am       
en

Este fichero es trabajo propio de su transcriptor y representa su interpretación personal de la canción. El material contenido en esta página es para exclusivo uso privado, por lo que se prohibe su reproducción o retransmisión, así como su uso para fines comerciales.