Decir Adios (TAB) (6)


q tal soy gonzalo de tacna peru ,,pues aki aportando con el solo
de marcello motta un grande en peru,pues ahi les va, tiene uno q
otro arreglo,es dificil sacar la version del disco ya q se usan
dos guitarras esto es lo mas cerca q pude sacar..
--------------------------------------
--------------------------------------
-------4-5-5h4-----7-5-4---4^---------
--5-7----------7-5-------7------------
--------------------------------------
--------------------------------------

-----------------------------------
----8-10^------/8------------------
-/7--------7^~-~-------------------
--------------------7h5---5--------
------------------------7---7------
-----------------------------------

-10---------------10---------------
---10^h8-10-8--8----10^h8-10-8--8--
-------------9-----------------9---
-----------------------------------
-----------------------------------
-----------------------------------

-------10---------------------13---
-10^~-~-~10~h8-10-8-8-8----13~---15
-----------------------------------
-----------------------------------
-----------------------------------
-----------------------------------

------------------------------------
13--11-11-----11---------6-6--6-8---
-----------12---12-------7-7-7--7---
------------------------------------
------------------------------------
------------------------------------

------------------------------------------------------------
--8-10/12-8--12---8-10-10~-8----13--15----8/10---8----------
-9-9--------------------------------------7/-9---7----------
------------------------------------------------------------
------------------------------------------------------------
------------------------------------------------------------

 Am
       Am       
en

Este fichero es trabajo propio de su transcriptor y representa su interpretación personal de la canción. El material contenido en esta página es para exclusivo uso privado, por lo que se prohibe su reproducción o retransmisión, así como su uso para fines comerciales.