Decir Adios (TAB) (5)


Bueno esta es mi primera colaboracion...Decir A
        A        
dios esta excelente cancion de Marcello Motta... esta facil de entender y bueno espero que les guste: alguna correccion(luis_12138) paz y rock!! Decir A
        A        
dios - Am
       Am       
en Intro  E
        E        
|-----------------|  B
        B        
|-----------------|  G
        G        
|--------0--------|  D
        D        
|---0h2-----0-----|  A
        A        
|--------------0--|  E
        E        
|----------------3|  A
        A        
rpegio(*)  D
        D        
ecir adios fue dificil para mi  G
        G        
 D
        D        
Em
       Em       
  Bm
       Bm       
  e|----3-----3------0--------------0--------2--2-2-  B
        B        
|------3------3-----3--------------0------3--3-3-  G
        G        
|--0-----0------2-----2-------0------0----4--4-4-  D
        D        
|-----------------------0--------------2--4--4-4-  A
        A        
|---------------------------2-------------2--2-2-  E
        E        
|-----------------------------------------2--2-2- por que te quise desde que te conoci  C
        C        
 G
        G        
 D
        D        
---------0------------3-----3-2------3-2-----| -------1---1--------3---3-----3----3----3----| -----0------0-----0-------0---2--2--------2--| --------------2------------------------------| ---3------------2----------------------------| ---------------------------------------------| e|------------------|  B
        B        
|------------------|  G
        G        
|---5/7--7/5--4----|  D
        D        
|---7/9--9/7--5----|  A
        A        
|------------------|  E
        E        
|------------------|  E
        E        
stoy aqui  G
        G        
 D
        D        
 E
        E        
|--3/5/3-------|  B
        B        
|--3/5/3-------|  G
        G        
|--x-x-x-------|  D
        D        
|--------------|  A
        A        
|--------------|  E
        E        
|--------------| pensando solo en ti y tus recuerdos lo son todo para mi Em
       Em       
  Bm
       Bm       
   C
        C        
 G
        G        
 D
        D        
e|-------0--------2--2-2---------0-------------3------3--2------3-2-----|  B
        B        
|---------0------3--3-3-------1---1--------3----3-------3----3----3----|  G
        G        
|----0------0----4--4-4-----0------0-----0--------0-----2--2--------2--|  D
        D        
|-------------2--4--4-4--------------2---------------------------------|  A
        A        
|--2-------------2--2-2---3------------2-------------------------------|  E
        E        
|----------------2--2-2------------------------------------------------|  E
        E        
|--------|  B
        B        
|--------|  G
        G        
|--------|  D
        D        
|--------|  A
        A        
|-0-2-3--|  E
        E        
|--------|  D
        D        
e que sirve querer si despues vas a fallar  C
        C        
 G
        G        
no quise terminar pero lo tengo que aceptar  C
        C        
 D
        D        
 A
        A        
rpegio:(*) Tu ausencia ya  G
        G        
 D
        D        
puso en llanto mi corazon Em
       Em       
  Bm
       Bm       
  con el recuerdo que tuvimos tu y yo  C
        C        
 G
        G        
 D
        D        
Pasaran los dias  G
        G        
 D
        D        
y tu voz quedara en cada rincon Em
       Em       
  Bm
       Bm       
 D* y esos susurros cuando haciamos el amor  C
        C        
 G
        G        
 D
        D        
 D
        D        
ificil de pensar que ya nunca volveras  C
        C        
 G
        G        
tus alas volaran y en otro cielo sufriran  C
        C        
 D
        D        
coro: Y la verdad es que me siento solo  G
        G        
 D
        D        
Em
       Em       
  pues nunca te podre olvidar  C
        C        
Y la verdad es que me siento libre  G
        G        
 D
        D        
Em
       Em       
  aunque las noches sean de soledad  C
        C        
Y la verdad es que te llevo adentro  G
        G        
 D
        D        
Em
       Em       
  pues ocupaste tu lugar  C
        C        
Y por tu bien espero que no vuelvas  G
        G        
 D
        D        
Em
       Em       
  pues la vas a pasar muy mal  C
        C        
SOLO:  G
        G        
 D
        D        
e|------------------------------------  B
        B        
|------------------------8-7-5----5~-  G
        G        
|--------4-5-4-----------------7-----  D
        D        
|---5-7--------7-5------------------  A
        A        
|------------------------------------  E
        E        
|------------------------------------  E
        E        
Bm
       Bm       
  e|-0-----0--------2--2-2--------------  B
        B        
|-0-------0------3--3-3--------------  G
        G        
|-0---2-----0----4--4-4--------------  D
        D        
|-2-2---------2--4--4-4--------------  A
        A        
|-2--------------2--2-2--------------  E
        E        
|-0--------------2--2-2--------------  C
        C        
 G
        G        
e|-----3--5~-----3---3-3--------------  B
        B        
|-3/5------ 3/5----------5/3---------  G
        G        
|------------------------------------  D
        D        
|------------------------------------  A
        A        
|------------------------------------  E
        E        
|------------------------------------  D
        D        
e|-------10---------12---------14---------15--  B
        B        
|--------------------------------------------  G
        G        
|-10/11----11-11/12---12-12/14---14 14/16----  D
        D        
|--------------------------------------------  A
        A        
|--------------------------------------------  E
        E        
|--------------------------------------------  C
        C        
 G
        G        
e|----------------------------12-10----------12-10-------------  B
        B        
|----------10~-10~--------8--------12-10~-8-------12-10~-8---8  G
        G        
|----------------------------------------------------------9--  D
        D        
|--8~-8~-----------8~-~8--------------------------------------  A
        A        
|-------------------------------------------------------------  E
        E        
|------------------------------------------------------------- B7
       B7       
   C
        C        
Cm7
       Cm7       
   D
        D        
e|--10/12--8-10---------------------7/8/7---  B
        B        
|--------------10~-8-----------------------  G
        G        
|-----------------------5/4--7~------------  D
        D        
|------------------------------------------  A
        A        
|------------------------------------------  E
        E        
|------------------------------------------  D
        D        
onde estaras no me llega a interesar pues tu bien sabes me la tienes que pagar Y lloraras es tu conciencia envenenada esta acabando lentamente con tu alma Pero la verdad no te deseo ningun mal pues algun cabron ya te las hara pagar ohhhh Repite coro: Pues habra otra ocupando tu lugar Em
       Em       
   C
        C        
 D
        D        
 G
        G        


 Am
       Am       
en

Este fichero es trabajo propio de su transcriptor y representa su interpretación personal de la canción. El material contenido en esta página es para exclusivo uso privado, por lo que se prohibe su reproducción o retransmisión, así como su uso para fines comerciales.