Verde Llano (TAB)


|----5-----5-----5-----5-----7-----7--------------|
|----7-----7-----6-----6-----8-----8-----8-----8--|
|----7-----7-----6-----6-----9-----9-----5-----5--|x2
|----7-----7-----7-----7-----9-----9-----7-----7--|
|----5-----5-----5-----5-----7-----7-----5-----5--|
|-5--5--5--5--5--5--5--5--7--7--7--7--5--5--5--5--|

|----5-----5-----5--5--5-----5-----5--5--|
|----7-----7-----6--6--6-----7-----6--6--|
|----7-----7-----7--7--7-----7-----7--7--|
|----7-----7-----7--7--7-----7-----7--7--|
|----5-----5-----5--5--5-----5-----5--5--|
|-5--5--5--5--5--5--5--5--5--5--5--5--5--|



PUNTEO:

|----------8-------------------10--------|
|-10----10---10-------12----12----12-----|
|----10---------10/12----12----------12--|
|----------------------------------------|
|----------------------------------------|
|----------------------------------------|

|--8--------------------|
|-----8—-8--8--7/8--10--|
|-----------------------|
|-----------------------|
|-----------------------|
|-----------------------|

|-10----------------------|-------------------------|
|----11-------------------|-----------------10/12v--|
|-------12---9/7---11-----|------9--11--9-----------|
|-------------------------|--12---------------------|
|-------------------------|-------------------------|

|-------------------------|-------------------------|
|-10----------------------|-------------------------|
|----11-------------------|-----------------10/12v--|
|-------12---9/7---11-----|------9--11--9-----------|
|-------------------------|--12---------------------|
|-------------------------|-------------------------|

|-------------------------|
|-10----------------------|
|----11------9/7---10-----|
|-------12----------------|
|-------------------------|
|-------------------------|

|----------------------------------|
|-------10-10/12/10-10-------------|
|----12----------------11---9/7-10-|
|-11-------------------------------|
|----------------------------------|
|----------------------------------|

|---------------------------------|
|-10-10-7-10-----------10------10-|
|-------------11--9/10----9/10----|
|---------------------------------|
|---------------------------------|
|---------------------------------|

|--------------------|
|--------------------|
|--------------------|
|-12-12-12-12-12-12--|
|--------------------|
|--------------------|

|-------------------------------------|
|-------------------------------------|
|-9-9-7-9-7-9/10-10-9/10/9-7/----7----|
|------------------------------9---9--|
|-------------------------------------|
|-------------------------------------|

|---------------------------------------|
|---------------------------------10----|
|-9-9-7-9-7-9/10-10-9/10/9-7/--11----11-|
|---------------------------------------|
|---------------------------------------|
|---------------------------------------|

|---------------------------------------|
|---------------------------------------|
|-9-9-7-9-7-9/10-10-9/10/9-7-7-7-7-7-7--|
|---------------------------------------|
|---------------------------------------|
|---------------------------------------|

|-------------------------|-------------------------|
|-10----------------------|-------------------------|
|----11-------------------|-----------------10/12v--|
|-------12---9/7---11-----|------9--11--9-----------|
|-------------------------|--12---------------------|
|-------------------------|-------------------------|

|-------------------------|-------------------------|
|-10----------------------|-------------------------|
|----11-------------------|-----------------10/12v--|
|-------12---9/7---11-----|------9--11--9-----------|
|-------------------------|--12---------------------|
|-------------------------|-------------------------|

|-------------------------|
|-10----------------------|
|----11------9/7---10-----|
|-------12----------------|
|-------------------------|
|-------------------------|

|----------------------------------|
|-------10-10/12/10-10-------------|
|----12----------------11---9/7-10-|
|-11-------------------------------|
|----------------------------------|
|----------------------------------|

|---------------------------------|
|-10-10-7-10-----------10------10-|
|-------------11--9/10----9/10----|
|---------------------------------|
|---------------------------------|
|---------------------------------|

|--------------------|
|--------------------|
|--------------------|
|-12-12-12-12-12-12--|
|--------------------|
|--------------------|

|--------|
|-12-----|
|-11-----|
|-12-----|   F
        F        
IN. |--------| |--------| Almendra (Luis A
        A        
lberto Spinetta)

Este fichero es trabajo propio de su transcriptor y representa su interpretación personal de la canción. El material contenido en esta página es para exclusivo uso privado, por lo que se prohibe su reproducción o retransmisión, así como su uso para fines comerciales.