Parvas (TAB)


Intro: x2

e----------------------------------------/
b----------------------------------------/
g----------------------------------------/
d----2------3----4---5----------2--------/
a--2------0----0---0-------1--2----------/
E----------------------------------------/

e----------------------------------------/
b----------------------------------------/
g----------------------------------------/
d----------------------------------------/
a----------------------------------------/
E--0-3p-0-5p-0-3*-0-3p-0-5p-0-3p-0-------/

Puente: X 2                |Bm|

e------------------/    e---2---/
b----12--10--12----/    b---3---/
g------------------/    g---4---/
d------------------/    d---4---/
a------------------/    a---2---/
E------------------/    E
        E        
-------/ Riff de verso: e----------------------------------------------/ b------------------------------------3-5-5*-5*-/ g-----------------------4-4------2-4-----------/ d-----------------------4-4--2-4---------------/ a-2-3-2-------3-2-----2-2-2--------------------/ E-0-----3-2-0-----3-2--------------------------/ e----------------------------------------/ b----------------------------------------/ g----------------------------------------/ d-2--------------------------------------/ X2 a-0-3-5-7-7-5-3-2-3-2----(2)-3-2---------/ E---------------0-----3-2-0------3-2-----/ Puente: |G|C|Cmaj7
      Cmaj7      
/9| e------------------3-----------(0)------0-------------/ b------------------0-----------(1)-------0----3---1-0-/ g-------------(0)-(0)----------(0)----0----(0)—(0)----/ X2 d-------------(0)--------------(2)---2----------------/ a-------------(2)-------0-1-2-3-----3-----------------/ E-(0)-(1)-2-3—(3)----(3)------------------------------/ Progresión: | Em
       Em       
 | Bm
       Bm       
 | Am
       Am       
 | Em
       Em       
 | Am
       Am       
 | Em
       Em       
| Solo: Improv. en pentatónica de E
        E        
menor Letra: Parvas en que parva naceré arda tu hermana tan descalza arda tu hermana tan descalza Parvas denme tiempo para huír pues yo no vivo, ni consisto pues yo no vivo, ni consisto Parvas Parvas tu cabello es como el sol, solo ilumina de noche solo ilumina la noche Parvas mi vida al fin dividiré cien para mi, cien para el aire Parvas. Almendra (Luis A
        A        
lberto Spinetta)

Este fichero es trabajo propio de su transcriptor y representa su interpretación personal de la canción. El material contenido en esta página es para exclusivo uso privado, por lo que se prohibe su reproducción o retransmisión, así como su uso para fines comerciales.