Final (TAB)


Intro

e|3---------------|------3---------|----------------|------1-------1-|
B|3---------------|3---3---6-3-----|----------------|----------------|
G|4-----2-4---4-5-|------------2---|----------------|4-2-4---4-2-4---|
D|5---5-----5-----|--5-----------3-|------4-------4-|----------------|
A|5---------------|----------------|2-0-2---2-0-2---|----------------|
E|3-3-------------|----------------|----------------|----------------|



e|3---3-7-5-------|5-----------5---|----------------|
B|3-3-------------|5-------5-------|----------------|
G|4---------------|6---6-----------|----------------|
D|----------------|----------------|----------------|
A|----------------|----------------|----------------|
E|----------------|----------------|----------------|

  B7sus4
      B7sus4      
B7
       B7       
  e|----------------|----------------| B|5-2-5-2-5-2-5-2-|4-2-------------| G|----------------|----4-2---------| X2 D|----------------|----------------| A|----------------|----------------| E|----------------|----------------| E
        E        
  F#m
       F#m       
  Brillos, plantas vengan hacia mi G#m
       G#m       
  F#m
       F#m       
 C#m
       C#m       
  G#m
       G#m       
  yo también me dormí detrás C#m
       C#m       
  G#m
       G#m       
   G
        G        
 C
        C        
de la gran ciudad, vestido de gris E
        E        
  F#m
       F#m       
  Y dejé mis zapatos para un arlequín G#m
       G#m       
  F#m
       F#m       
  C#m
       C#m       
  G#m
       G#m       
  que una vez se llamó F
        F        
ermín C#m
       C#m       
  G#m
       G#m       
   G
        G        
y fue piel al fin, y fue piel al fin (Repite Intro) Chimeneas no me engañen más, quiero ver cielos de verdad, sin humo ni ollín, quiero madrugar con los grillos y las plantas y voy a gritar: vivo aquí, yo nací después  G
        G        
 C
        C        
de la gran ciudad, y hoy habrá función E
        E        
  F#m
       F#m       
  para ver a un arlequín bailando sobre el sol G#m
       G#m       
   A
        A        
 B
        B        
 E
        E        
sobre el sol, sobre el sol Almendra (Luis A
        A        
lberto Spinetta)

Este fichero es trabajo propio de su transcriptor y representa su interpretación personal de la canción. El material contenido en esta página es para exclusivo uso privado, por lo que se prohibe su reproducción o retransmisión, así como su uso para fines comerciales.