Homenaje (TAB) (3)


les dejo el solo de homenaje(en obras 2008)creo que esta bien
cualquier pregunta o correccion a mi mail (franserj)

E|--------------13-13f--13-10-13-13f-----|
B|--9b10~~-------------------------------|
G|---------------------------------------|
D|---------------------------------------|
A|---------------------------------------|
E|---------------------------------------|

E|-------16-17-14-16----14----------------------|
B|-14-14-------------17----15-17-14-15----14----|
G|-------------------------------------16----14-|
D|----------------------------------------------|
A|----------------------------------------------|
E|----------------------------------------------|

E|---------------------------------------------|
B|---------------------------------------------|
G|-16-13-14----14------------------------------|
D|----------16----14-16~~~~~-------------------|
A|---------------------------------------------|
E|---------------------------------------------|

E|-14-12-10-14-12-10---------------------|
B|-------------------14-12-10-14-12-10---|
G|---------------------------------------|
D|---------------------------------------|
A|---------------------------------------|
E|---------------------------------------|

E|-12-10-9-12-10-9-10-9-7-10-9-7-9-7-5-9-7-5--|
B|--------------------------------------------|
G|--------------------------------------------|
D|--------------------------------------------|
A|--------------------------------------------|
E|--------------------------------------------|

E|-7-5-4-7-5-4------------14-16-17-16-19-19f-19-19f~~~~~--|
B|-------------3f~~~---14---------------------------------|
G|--------------------------------------------------------|
D|--------------------------------------------------------|
A|--------------------------------------------------------|
E|--------------------------------------------------------|

E|--------------------------------------------------|
B|-4---4-5-7-10-10-10-10-9-9-7-7-5-5-8----7--7h8p7--|
G|-3------------------------------------------------|
D|-1------------------------------------------------|
A|--------------------------------------------------|
E|--------------------------------------------------|

E|--------------------------------------|
B|-5h7-----3h5-3---2h3-2----------------|
G|-------------------------2h4~~~~~-----|
D|--------------------------------------|
A|--------------------------------------|
E|--------------------------------------|

   T        T        T        T
E|-19-14-11-17-14-11-19-14-11-17-14-11-17-17f~~~~~--|
B|--------------------------------------------------|
G|--------------------------------------------------|
D|--------------------------------------------------|
A|--------------------------------------------------|
E|--------------------------------------------------|

E|-17-16-17-14-------------------------------------------|
B|-------------17-15-14----14----------------------------|
G|----------------------16----16-14-16-14-13-------------|
D|-------------------------------------------14-12~~~~~--|
A|-------------------------------------------------------|
E|-------------------------------------------------------|


f:full
T:tapping
~:vibrato

 A
        A        
lmafuerte

Este fichero es trabajo propio de su transcriptor y representa su interpretación personal de la canción. El material contenido en esta página es para exclusivo uso privado, por lo que se prohibe su reproducción o retransmisión, así como su uso para fines comerciales.