Hombre Peste


Claudio Marciello (Gtr 1) 
Aca el tano afina la 6º cuerda un tono atras 
 
 
E||----------------------|-----------------------|----------------------| 
B||----------------------|-----------------------|----------------------| 
G||--9--8-------7--6-----|--9--8-----------------|-------------7--6-----| 
D||--9--8-------7--6-----|--9--8-----------------|--2--1-------7--6-----| 
A||--7--6-------5--4-----|--7--6-------5-4-3-----|--2--1-------5--4-----| 
E||----------------------|-------------3-2-1-----|----------------------| 
 
 
                                                              
-----------------------|------------------------------------| 
-----------------------|------------------------------------| 
-----------------------|------------------------------------| 
--2--1-----------------|---------------------------------5--| 
--2--1-------5-4-3-----|--2-2--2-2-2-2--2-2-2-2--2-2-2-2----| 
-------------3-2-1-----|--0-0--0-0-0-0--0-0-0-0--0-0-0-0----| 
 
 
                                                                  
----------------------------------|-----------------------------| 
----------------------------------|-----------------------------| 
----------------------------------|-----------------------------| 
--------------------------4-5-6-7-|--------------------9---3----| 
--2-2-2-2-9-8-7-5-2-2-2-2-2-3-4-5-|--2-2-2-2-9-8-7-5-2-7---1----| 
--0-0-0-0-7-6-5-3-0-0-0-0---------|--0-0-0-0-7-6-5-3-0----------| 
 
 
                                                                  
----------------------------------|-----------------------------| 
----------------------------------|-----------------------------| 
----------------------------------|-----------------------------| 
--------------------------4-5-6-7-|--------------------9---3----| 
--2-2-2-2-9-8-7-5-2-2-2-2-2-3-4-5-|--2-2-2-2-9-8-7-5-2-7---1----| 
--0-0-0-0-7-6-5-3-0-0-0-0---------|--0-0-0-0-7-6-5-3-0----------| 
 
 
                                                                     
---------------------------------|---------------------------------| 
---------------------------------|---------------------------------| 
--------------------------5--4---|--------------------------4--5---| 
--------------------------5--4---|--------------------------4--5---| 
--4-4-4---4-----4-4-4-4----------|--4-4-4---4-----4-4-4-4----------| 
--2-2-2-2-2-2-2-2-2-2-2-2--------|--2-2-2-2-2-2-2-2-2-2-2-2--------| 
 
 
                                                                     
---------------------------------|---------------------------------| 
---------------------------------|---------------------------------| 
--------------------------5--4---|--------------------------4--5---| 
--------------------------5--4---|--------------------------4--5---| 
--4-4-4---4-----4-4-4-4----------|--4-4-4---4-----4-4-4-4----------| 
--2-2-2-2-2-2-2-2-2-2-2-2--------|--2-2-2-2-2-2-2-2-2-2-2-2--------| 
 
 
                                                             
------------------------------|----------------------------| 
------------------------------|----------------------------| 
---------9--8--------12--11---|---------9--8--------5--7---| 
--2------9--8--------12--11---|--2------9--8--------5--7---| 
--0--0-0-------0-0-0-10--9----|--0--0-0-------0-0-0--------| 
------------------------------|----------------------------| 
 
 
                                                             
------------------------------|----------------------------| 
------------------------------|----------------------------| 
---------9--8--------12--11---|---------9--8--------5--7---| 
--2------9--8--------12--11---|--2------9--8--------5--7---| 
--0--0-0-------0-0-0-10--9----|--0--0-0-------0-0-0--------| 
------------------------------|----------------------------| 
 
 
                                                                     
---------------------------------|---------------------------------| 
---------------------------------|---------------------------------| 
--------------------------5--4---|--------------------------4--5---| 
--------------------------5--4---|--------------------------4--5---| 
--4-4-4---4-----4-4-4-4----------|--4-4-4---4-----4-4-4-4----------| 
--2-2-2-2-2-2-2-2-2-2-2-2--------|--2-2-2-2-2-2-2-2-2-2-2-2--------| 
 
 
                                                                     
---------------------------------|---------------------------------| 
---------------------------------|---------------------------------| 
--------------------------5--4---|--------------------------4--5---| 
--------------------------5--4---|--------------------------4--5---| 
--4-4-4---4-----4-4-4-4----------|--4-4-4---4-----4-4-4-4----------| 
--2-2-2-2-2-2-2-2-2-2-2-2--------|--2-2-2-2-2-2-2-2-2-2-2-2--------| 
 
 
                                                                     
---------------------------------|---------------------------------| 
---------------------------------|---------------------------------| 
--------------------------5--4---|--------------------------4--5---| 
--------------------------5--4---|--------------------------4--5---| 
--4-4-4---4-----4-4-4-4----------|--4-4-4---4-----4-4-4-4----------| 
--2-2-2-2-2-2-2-2-2-2-2-2--------|--2-2-2-2-2-2-2-2-2-2-2-2--------| 
 
 
                                                             
------------------------------|----------------------------| 
------------------------------|----------------------------| 
---------9--8--------12--11---|---------9--8--------5--7---| 
--2------9--8--------12--11---|--2------9--8--------5--7---| 
--0--0-0-------0-0-0-10--9----|--0--0-0-------0-0-0--------| 
------------------------------|----------------------------| 
 
 
                                                             
------------------------------|----------------------------| 
------------------------------|----------------------------| 
---------9--8--------12--11---|---------9--8--------5--7---| 
--2------9--8--------12--11---|--2------9--8--------5--7---| 
--0--0-0-------0-0-0-10--9----|--0--0-0-------0-0-0--------| 
------------------------------|----------------------------| 
 
 
                                                                  
----------------------------------|-----------------------------| 
----------------------------------|-----------------------------| 
----------------------------------|-----------------------------| 
--------------------------4-5-6-7-|--------------------9---3----| 
--2-2-2-2-9-8-7-5-2-2-2-2-2-3-4-5-|--2-2-2-2-9-8-7-5-2-7---1----| 
--0-0-0-0-7-6-5-3-0-0-0-0---------|--0-0-0-0-7-6-5-3-0----------| 
 
 
                                                                  
----------------------------------|-----------------------------| 
----------------------------------|-----------------------------| 
----------------------------------|-----------------------------| 
--------------------------4-5-6-7-|--------------------9---3----| 
--2-2-2-2-9-8-7-5-2-2-2-2-2-3-4-5-|--2-2-2-2-9-8-7-5-2-7---1----| 
--0-0-0-0-7-6-5-3-0-0-0-0---------|--0-0-0-0-7-6-5-3-0----------| 
 
 
                                                               
-------------------------------|-----------------------------| 
-------------------------------|-----------------------------| 
----------9--8--------12--11---|----------9--8--------5--7---| 
----------9--8--------12--11---|----------9--8--------5--7---| 
--3-0-0-0-------3-0-0----------|--3-0-0-0-------3-0-0--------| 
-------------------------------|-----------------------------| 
 
 
                                                                               
-------------------------------|-----------------------------|---------------| 
-------------------------------|-----------------------------|---------------| 
----------9--8--------12--11---|----------9--8--------5--7---|--------8--7---| 
----------9--8--------12--11---|----------9--8--------5--7---|--------8--7---| 
--3-0-0-0-------3-0-0----------|--3-0-0-0-------0-0-0-3--5---|--0-0-0-6--5---| 
-------------------------------|-----------------------------|---------------| 
 
 
                                                                 
-----------------------------------|---------------------------| 
-----------------------------------|---------------------------| 
-----------------------------------|--9---9-10-9-------7-------| 
-----------------------------------|--------------9---------7b-| 
--2-2--2-2-2-2--2-2-2-2--2-2-2-2---|---------------------------| 
--0-0--0-0-0-0--0-0-0-0--0-0-0-0---|---------------------------| 
 
 
                           
-------------------------| 
-------------------------| 
-------------------------| 
--------4-5-4------------| 
--------------7-5-4------| 
--------------------7----| 
 
 
                                                                       
---------------------------------------------------------------------| 
---------------------------------------------------------------------| 
--------------------------------------------------------8----8-9-8-9-| 
------------------------4-6-4-6-7-6-7-6-4-6-7/11-9-11-9---11---------| 
--4-5-4---4-5-7-5-4-5-7----------------------------------------------| 
--------7------------------------------------------------------------| 
 
 
                                                            
----------------9-11-12-11-12-14-12-15-14-17-15-19~-------| 
--9-10-12-10-12-------------------------------------------| 
----------------------------------------------------------| 
----------------------------------------------------------| 
----------------------------------------------------------| 
----------------------------------------------------------| 
 
 
                                                                                 
--14t12h10h8h10h12-14t12h10h8h10h12-14t12h10h8h10h12-14t12h10h8h10h12-14t12h10h8 
-------------------------------------------------------------------------------- 
-------------------------------------------------------------------------------- 
-------------------------------------------------------------------------------- 
-------------------------------------------------------------------------------- 
-------------------------------------------------------------------------------- 
 
 
                                                                          
--14~--14-12-14-12-----------------------------|------------------------| 
-------------------15-13-15-13-----------------|------------------------| 
-------------------------------14-12-----------|--6---4---9----8--7--6--| 
-------------------------------------14~-------|--6-------9-------7-----| 
-----------------------------------------------|------------------------| 
-----------------------------------------------|------------------------| 
 
 
                                  
--------------------------------| 
---------------17b-17-15-18~----| 
--11---14---14------------------| 
--11---14-----------------------| 
--------------------------------| 
--------------------------------| 
 
 
                                                                                 
--16-16-14-13------------------------------------------------------------------- 
--------------16-14-12----------------------------------------------------12-14- 
-----------------------16-15-16-15-13-------------------13-15-13-16-15-16------- 
--------------------------------------16-15-13-15-13-16------------------------- 
-------------------------------------------------------------------------------- 
-------------------------------------------------------------------------------- 
 
 
                                                         
--14-16-18-16-19-18-18-21-19-18-20r-17-21b-21-19-22~---| 
-------------------------------------------------------| 
-------------------------------------------------------| 
-------------------------------------------------------| 
-------------------------------------------------------| 
-------------------------------------------------------| 
 
 
                                                             
------------------------------|----------------------------| 
------------------------------|----------------------------| 
---------9--8--------12--11---|---------9--8--------5--7---| 
--2------9--8--------12--11---|--2------9--8--------5--7---| 
--0--0-0-------0-0-0-10--9----|--0--0-0-------0-0-0--------| 
------------------------------|----------------------------| 
 
 
                                                             
------------------------------|----------------------------| 
------------------------------|----------------------------| 
---------9--8--------12--11---|---------9--8--------5--7---| 
--2------9--8--------12--11---|--2------9--8--------5--7---| 
--0--0-0-------0-0-0-10--9----|--0--0-0-------0-0-0--------| 
------------------------------|----------------------------| 
 
 
                                                               
-------------------------------|-----------------------------| 
-------------------------------|-----------------------------| 
----------9--8--------12--11---|----------9--8--------5--7---| 
----------9--8--------12--11---|----------9--8--------5--7---| 
--3-0-0-0-------3-0-0----------|--3-0-0-0-------3-0-0--------| 
-------------------------------|-----------------------------| 
 
 
                                                                               
-------------------------------|-----------------------------|---------------| 
-------------------------------|-----------------------------|---------------| 
----------9--8--------12--11---|----------9--8--------5--7---|--------8--7---| 
----------9--8--------12--11---|----------9--8--------5--7---|--------8--7---| 
--3-0-0-0-------3-0-0----------|--3-0-0-0-------0-0-0-3--5---|--0-0-0-6--5---| 
-------------------------------|-----------------------------|---------------| 
 
 
                                                                  
----------------------------------|-----------------------------| 
----------------------------------|-----------------------------| 
----------------------------------|-----------------------------| 
--------------------------4-5-6-7-|--------------------9---3----| 
--2-2-2-2-9-8-7-5-2-2-2-2-2-3-4-5-|--2-2-2-2-9-8-7-5-2-7---1----| 
--0-0-0-0-7-6-5-3-0-0-0-0---------|--0-0-0-0-7-6-5-3-0----------| 
 
 
                                                                  
----------------------------------|-----------------------------| 
----------------------------------|-----------------------------| 
----------------------------------|-----------------------------| 
--------------------------4-5-6-7-|--------------------9---3----| 
--2-2-2-2-9-8-7-5-2-2-2-2-2-3-4-5-|--2-2-2-2-9-8-7-5-2-7---1----| 
--0-0-0-0-7-6-5-3-0-0-0-0---------|--0-0-0-0-7-6-5-3-0----------| 
 
 
                                                                     
-------------------------|--------------------|-------------------|| 
-------------------------|--------------------|-------------------|| 
----------9--9h10-9------|------7-------------|-------------------|| 
---------------------9~--|-----------7~-------|-------------------|| 
-------------------------|--------------------|--2----------------|| 
-------------------------|--------------------|--0----------------||

 A
        A        
lmafuerte

Este fichero es trabajo propio de su transcriptor y representa su interpretación personal de la canción. El material contenido en esta página es para exclusivo uso privado, por lo que se prohibe su reproducción o retransmisión, así como su uso para fines comerciales.