Hombre Peste (BAJ) (2)


G||----------------------|-----------------------|----------------------| 
D||----------------------|-----------------------|----------------------| 
A||-----6-------5--4-----|-----6-----------------|-----6-------5--4-----| 
E||--0-------------------|--0----------3-2-1-----|--0-------------------| 
 
 
                                                                   
-----------------------|------|----------------------------------| 
-----------------------|------|----------------------------------| 
-----6-----------------|------|--------------------------2-3-4-5-| 
--0----------3-2-1-----|------|--0-0-0-0-7-6-5-3-0-0-0-0---------| 
 
 
                                                                  
-----------------------------|----------------------------------| 
-----------------------------|----------------------------------| 
--------------------7--------|--------------------------2-3-4-5-| 
--0-0-0-0-7-6-5-3-0-----6----|--0-0-0-0-7-6-5-3-0-0-0-0---------| 
 
 
                                                                  
-----------------------------|----------------------------------| 
-----------------------------|----------------------------------| 
--------------------7--------|------------------------3-3-2-2-2-| 
--0-0-0-0-7-6-5-3-0-----6----|--2-2-2-2-2-2-2-2-2-2-2-----------| 
 
 
                                                                       
----------------------------------|----------------------------------| 
----------------------------------|----------------------------------| 
------------------------2-2-3-3-3-|------------------------3-3-2-2-2-| 
--2-2-2-2-2-2-2-2-2-2-2-----------|--2-2-2-2-2-2-2-2-2-2-2-----------| 
 
 
                                                                       
----------------------------------|----------------------------------| 
----------------------------------|----------------------------------| 
------------------------2-2-3-3-3-|--0-0-0-0-7-7-6-6-0-0-0-----------| 
--2-2-2-2-2-2-2-2-2-2-2-----------|------------------------3-3-2-2-2-| 
 
 
                                                                       
----------------------------------|----------------------------------| 
----------------------------------|----------------------------------| 
--0-0-0-0-7-7-6-6-0-0-0-3-3-5-5-5-|--0-0-0-0-7-7-6-6-0-0-0-----------| 
----------------------------------|------------------------3-3-2-2-2-| 
 
 
                                                                       
----------------------------------|----------------------------------| 
----------------------------------|----------------------------------| 
--0-0-0-0-7-7-6-6-0-0-0-3-3-5-5-5-|------------------------3-3-2-2-2-| 
----------------------------------|--2-2-2-2-2-2-2-2-2-2-2-----------| 
 
 
                                                                       
----------------------------------|----------------------------------| 
----------------------------------|----------------------------------| 
------------------------2-2-3-3-3-|------------------------3-3-2-2-2-| 
--2-2-2-2-2-2-2-2-2-2-2-----------|--2-2-2-2-2-2-2-2-2-2-2-----------| 
 
 
                                                                       
----------------------------------|----------------------------------| 
----------------------------------|----------------------------------| 
------------------------2-2-3-3-3-|------------------------3-3-2-2-2-| 
--2-2-2-2-2-2-2-2-2-2-2-----------|--2-2-2-2-2-2-2-2-2-2-2-----------| 
 
 
                                                                       
----------------------------------|----------------------------------| 
----------------------------------|----------------------------------| 
------------------------2-2-3-3-3-|----------7-7-6-6-----------------| 
--2-2-2-2-2-2-2-2-2-2-2-----------|--0-0-0-0---------0-0-0-3-3-2-2-2-| 
 
 
                                                                       
----------------------------------|----------------------------------| 
----------------------------------|----------------------------------| 
----------7-7-6-6-------3-3-5-5-5-|----------7-7-6-6-----------------| 
--0-0-0-0---------0-0-0-----------|--0-0-0-0---------0-0-0-3-3-2-2-2-| 
 
 
                                                                       
----------------------------------|----------------------------------| 
----------------------------------|----------------------------------| 
----------7-7-6-6-------3-3-5-5-5-|--------------------------2-3-4-5-| 
--0-0-0-0---------0-0-0-----------|--0-0-0-0-7-6-5-3-0-0-0-0---------| 
 
 
                                                                  
-----------------------------|----------------------------------| 
-----------------------------|----------------------------------| 
--------------------7--------|--------------------------2-3-4-5-| 
--0-0-0-0-7-6-5-3-0-----6----|--0-0-0-0-7-6-5-3-0-0-0-0---------| 
 
 
                                                                  
-----------------------------|----------------------------------| 
-----------------------------|----------------------------------| 
--------------------7--------|--3-0-0-0-7-7-6-6-3-0-0-----------| 
--0-0-0-0-7-6-5-3-0-----6----|------------------------3-3-2-2-2-| 
 
 
                                                                       
----------------------------------|----------------------------------| 
----------------------------------|----------------------------------| 
--3-0-0-0-7-7-6-6-3-0-0-3-3-5-5-5-|--3-0-0-0-7-7-6-6-3-0-0-----------| 
----------------------------------|------------------------3-3-2-2-2-| 
 
 
                                                       
-------------------------------|---------------|-----| 
-------------------------------|---------------|-----| 
--3-0-0-0-7-7-6-6-0-0-0-3--5---|--0-0-0-6--5---|-----| 
-------------------------------|---------------|-----| 
 
 
                                                                  
----------------------------------|-----------------------------| 
----------------------------------|-----------------------------| 
--------------------------2-3-4-5-|--------------------7--------| 
--0-0-0-0-7-6-5-3-0-0-0-0---------|--0-0-0-0-7-6-5-3-0-----6----| 
 
 
                                                                  
----------------------------------|-----------------------------| 
----------------------------------|-----------------------------| 
--------------------------2-3-4-5-|--------------------7--------| 
--0-0-0-0-7-6-5-3-0-0-0-0---------|--0-0-0-0-7-6-5-3-0-----6----| 
 
 
                                                                  
----------------------------------|-----------------------------| 
----------------------------------|-----------------------------| 
--------------------------2-3-4-5-|--------------------7--------| 
--0-0-0-0-7-6-5-3-0-0-0-0---------|--0-0-0-0-7-6-5-3-0-----6----| 
 
 
                                                                       
----------------------------------|----------------------------------| 
----------------------------------|----------------------------------| 
----------------------------------|----------------------------------| 
--2-2-2-2-2-2-2-2-2-2-2-2-2-2-2-2-|--2-2-2-2-2-2-2-2-2-2-2-2-2-2-2-2-| 
 
 
                                                                       
----------------------------------|----------------------------------| 
----------------------------------|----------------------------------| 
----------------------------------|----------------------------------| 
--2-2-2-2-2-2-2-2-2-2-2-0-2-2-2-2-|--2-2-2-2-2-2-2-2-2-2-2-0-2-2-2-2-| 
 
 
                                                                       
----------------------------------|----------------------------------| 
----------------------------------|----------------------------------| 
--0-0-0-0-7-7-6-6-0-0-0-----------|--0-0-0-0-7-7-6-6-0-0-0-3-3-5-5-5-| 
------------------------3-3-2-2-2-|----------------------------------| 
 
 
                                                                       
----------------------------------|----------------------------------| 
----------------------------------|----------------------------------| 
--0-0-0-0-7-7-6-6-0-0-0-----------|--0-0-0-0-7-7-6-6-0-0-0-3-3-5-5-5-| 
------------------------3-3-2-2-2-|----------------------------------| 
 
 
                                                                       
----------------------------------|----------------------------------| 
----------------------------------|----------------------------------| 
--3-0-0-0-7-7-6-6-3-0-0-----------|--3-0-0-0-7-7-6-6-3-0-0-3-3-5-5-5-| 
------------------------3-3-2-2-2-|----------------------------------| 
 
 
                                                                    
----------------------------------|-------------------------------| 
----------------------------------|-------------------------------| 
--3-0-0-0-7-7-6-6-3-0-0-----------|--3-0-0-0-7-7-6-6-0-0-0-3--5---| 
------------------------3-3-2-2-2-|-------------------------------| 
 
 
                                                    
---------------|----------------------------------| 
---------------|----------------------------------| 
--0-0-0-6--5---|--------------------------2-3-4-5-| 
---------------|--0-0-0-0-7-6-5-3-0-0-0-0---------| 
 
 
                                                                  
-----------------------------|----------------------------------| 
-----------------------------|----------------------------------| 
--------------------7--------|--------------------------2-3-4-5-| 
--0-0-0-0-7-6-5-3-0-----6----|--0-0-0-0-7-6-5-3-0-0-0-0---------| 
 
 
                                                                               
-----------------------------|-------------------|------------------|-------|| 
-----------------------------|-------------------|------------------|-------|| 
--------------------7--------|-------------------|------------------|-------|| 
--0-0-0-0-7-6-5-3-0-----6----|--0----------------|------------------|--0----||

 A
        A        
lmafuerte

Este fichero es trabajo propio de su transcriptor y representa su interpretación personal de la canción. El material contenido en esta página es para exclusivo uso privado, por lo que se prohibe su reproducción o retransmisión, así como su uso para fines comerciales.