Hacia el abismo (TAB)


Intro:
e-|-----------------------------------|-
B-|-----------------------------------|-
G-|-----------------------------------|-
D-|-7-8--------------7-8--------------|-
A-|-5-6-8-7---9-12---5-6-8-7---9-12-9-|-
E-|-----6-5---8-11-------6-5---8-11-8-|-
Riff 1:
e-|-----------------------------------------------|-
B-|-----------------------------------------------|-
G-|-----------------------------------------------|-
D-|-9-7-10-9---9-7-9-4---9-7-10-9---9-1212-10-7-9-|-
A-|-7-5--8-7---7-5-7-2---7-5--8-7---7-1010--8-5-7-|-
E-|-----------------------------------------------|-
E5 (con Riff 1)
Planetaria depredación,
respaldada en las armas.
Dando pasos al abismo,
vas restando esperanzas.
Es de muchos no querer ver,
o no darte importancia.
A
        A        
 tu marcha de exterminio, que diariamente avanza. B5 A
        A        
5 Mientras la humana familia, duerme. G5 E
        E        
5 Pachamama en el olvido se disuelve. B5 A
        A        
5 Gran chusma, exije milagro al santo. G5 Y aún, más que ayer. E5 Hereditaria es la succión. Riff 2: -|----------|- -|----------|- -|----------|- -|-12-7-5-9-|- -|-12-7-5-9-|- -|-10-5-3-7-|- Pueblo libre, sometido, con presión monetaria. Muy bien financia el extravío de la conquista espacial. Mientras la humana familia, duerme. Pachamama en el olvido se disuelve. Gran chusma, exije milagro al santo. Y aún, más que ayer. Hereditaria es la succión. Final: -|----------|--------------|- -|----------|--------------|- -|----------|--------------|- -|-12-7-5-9-|-10-13----2-2-|- -|-12-7-5-9-|--9-12----2-2-|- -|-10-5-3-7-|--8-11----0-0-|-

 A
        A        
lmafuerte

Este fichero es trabajo propio de su transcriptor y representa su interpretación personal de la canción. El material contenido en esta página es para exclusivo uso privado, por lo que se prohibe su reproducción o retransmisión, así como su uso para fines comerciales.