En este viaje (TAB) (4)


Solo de en este viaje..espero q les sirva



|------------------------12(full)-12-9-------12-9------------------9-------
|-9--10-9-10-9--7----------------------12-9-------12-9---12(full)------12-9
|--------------------9-----------------------------------------------------
|--------------------------------------------------------------------------
|--------------------------------------------------------------------------
|--------------------------------------------------------------------------


---------12---------12-14-----17full---17-14----16-17-16-
--12full------14-----------------------------------------
---------------------------------------------------------
---------------------------------------------------------
---------------------------------------------------------
---------------------------------------------------------

-----------------------------------------------------------9------------
--------------------------------------------------------9-----12--9-----
--------X-------------------------------------------11full-----------11-
-----X--14-14full-----14-----14---------14------------------------------
--X--14------------------16------16--14-----16--------------------------
--16--------------------------------------------------------------------


------------------------------------------------------------------------
-9------------------------------------------------19full--19--17--19full
----12-11-9-11-9-------11full---11-9------11full------------------------
-----------------11-9---------------------------------------------------
------------------------------------------------------------------------
------------------------------------------------------------------------

--------14-16-19-16----17full----16-14-16-17-16-14------14-16-14--------
-----16---------------------------------------------17------------------
--16--------------------------------------------------------------------
------------------------------------------------------------------------
------------------------------------------------------------------------
------------------------------------------------------------------------

-16-14----------------------19full---12-9-------------------------------
-------17-16-14---------------------------12-9----9-12-9----------------
----------------16-16full----------------------11-----------------------
------------------------------------------------------------------------
------------------------------------------------------------------------
------------------------------------------------------------------------

------------------------------------------------------------------------
----9-12-9--------------------------------------------------------------
-11--------9----9-11-9----9---------------------------------------------
-------------11--------11---9-------------------------11----------------
------------------------------11-12-11----9---9-11-13-------------------
------------------------------------------------------------------------

------------------------------------------------------------------------
-----------12-14-17----12----10---9---9--10---7---------------------12--
-11-13-14---------------------------------------------9--8--6-----------
---------------------------------------------------------------9--------
------------------------------------------------------------------------
------------------------------------------------------------------------

------------------------------------------------------------------------
-10----9-----9-10-7----12----7-------7-9-7------------------------------
-----------------------------------------------8-----7------------------
------------------------------------------------------------------------
------------------------------------------------------------------------
------------------------------------------------------------------------

Noe

 A
        A        
lmafuerte

Este fichero es trabajo propio de su transcriptor y representa su interpretación personal de la canción. El material contenido en esta página es para exclusivo uso privado, por lo que se prohibe su reproducción o retransmisión, así como su uso para fines comerciales.