En este viaje (TAB) (3)


Intro 1:
|----------------------------------------------
|----------------------------------------------
|--6-----------------------6---9--11--9-----6--
|--6----------7---6---4----6---9--11--9--9--6--
|--4----------7---6---4----4---7---9--7--9--4--
|-------2--4--5---4---2------------------7-----

---------------------------
---------------------------
-----------------6--2-4-6--
-------7--6--4---6--2-4-6--
-------7--6--4---4--0-2-4--
---2-4-5--4--2-------------

----------------------------------------
----------------------------------------
---------------------6---9--11--9-----6--
--------7---6---4----6---9--11--9--9--6--
--------7---6---4----4---7---9--7--9--4--
--2--4--5---4---2------------------7-----

---------------------------------------|
---------------------------------------|
---------------------------------------|
--------7---6---4----------------------|
--------7---6---4----------------------|
--2--4--5---4---2----------------------|

Arpegio:
|--------------------------------------------------|
|-------------------------2--------2---------------|
|------6---------------------------------------6---|
|----6----------------4----------------------6-----|
|--4--------------------------4------------4-------|
|--------2-4-5--4--2-----------------4-------------|
De lo peor que me ha pasado
hice cancion porque yo canto lo que siento
violentamente al otro lado se fue mi amor
sin un adios, sin un hasta luego.

Intro 1

Arpegio:
No estuve yo para evitarlo, tal vez
lo inevitable no responde al "Vade Retro"
suele le gente equivocarse aqui
y las personas ver verdad en lo no cierto.

intro 2
|-----------------------------------------------|
|-----------------------------------------------|
|-----------------------------------------------|
|-9----------4---4-4----9------------4----------|
|-7---7--6---2---2-2----7----7--6----2----------|
|-----5--4-------------------5--4---------------|
Una gran razon me asiste en este viaje
dos flores de tu amor, razon, causa y efecto.

intro 3
|-----------------------------------------------|
|-----------------------------------------------|
|-----------------------------------------------|
|-7---2--4----6---6-----------7----2--4---9-----|
|-5---0--2----4---4-----------5----0--2---7-----|
|---------------------5---7---------------------|
La chismosa bruja  y la amistad infiel
 no guardan tus flores porque yo, yo las guardo bien

Solo: Intro x2 (proximamente)

intro 2
La primera esta polenizando
y el pequeño capullo se esta habriendo a cielo abierto

intro 3
y no he de negarlo he conseguido nuevo amor
pues sigo en la vida  recordando de vos lo mejor.

Intro 1
Es el amor el responsable
unica guia del espiritu imperfecto
es el amor el responsable, creo yo
es la verdad, es el sentido, el padre nuestro.


Intro x4
  Oh oh oh oh oh oh ooh   Oh oh oh oh oh oh ooh
|------------------------------------------------
|--9--7-9^10-9-7---7-/9---9--7-9^10-9-7----------
|----------------9----------------------6-/9-----
|--------------------------------------------11--
|------------------------------------------------
|------------------------------------------------

  Oh oh oh oh oh oh ooh     Oh oh oh oh oh oh ooh
----------------------9-------------------------------------|
--9--7--9^10--9--7--12--12-9-12-9---9-9-7-9-10-9-7----------|
----------------------------------11---------------6-9-6----|
------------------------------------------------------------|
------------------------------------------------------------|
------------------------------------------------------------|
Solo: (proximamente)

AGUANTE
        E        
 ALMAFUERTE
        E        
  Noe

 A
        A        
lmafuerte

Este fichero es trabajo propio de su transcriptor y representa su interpretación personal de la canción. El material contenido en esta página es para exclusivo uso privado, por lo que se prohibe su reproducción o retransmisión, así como su uso para fines comerciales.