El visitante (BAJ) (3)


(Intro) 
|----------------------------|----------------------|-------------------------|------------| 
|----------------------------|----------------------|-------------------------|------------| 
|-4--------------4-7-9-7---4-|-------------4----2-4-|-------------4-7-9-7---4-|------------| 
|----2-4-5--4-2----------7---|-2-4-5--4-2-----5-----|-2-4-5--4-2----------7---|-2-4-5--4-2-| 
 
(Estrofa 1) 
|--------------------|     |---------------| 
|--------------------|     |---------------| 
|-4--------------4---|(x3) |-4-------------| 
|----2-4-5--4-2----4-|     |----2-4-5--4-2-| 
 
(inter) 
|----------------------------|------------| 
|----------------------------|------------| 
|-4--------------4-7-9-7---4-|------------| 
|----2-4-5--4-2----------7---|-2-4-5--4-2-| 
 
(Estrofa 2, como 1) 
 
(Estrofa 3) 
|----------------|     |-------------------|----------------| 
|----------------|     |-------------------|----------------| 
|---------2--2-2-|(x2) |-2-4-5------4--4-4-|-2-4-5------(7)-| 
|-0-0-5-4--------|     |--------5-7--------|--------5-7-----| 
 
(Solo) 
|--------------------------|---------------------|---------------------------------------------| 
|--------------------------|---------------------|---------------------------------------------| 
|-4------------4-7-9-7---4-|-------------4---2-4-|-4--------------4-7-9-7----4-----------------| 
|---2-4-5--4-2---------7---|-2-4-5--4-2----5-----|----2-4-5--4-2----------7-----2-4-5--4-2-2-2-| 
 
(Estrofa 5 y 6 como 3 y 4) 
 
(Inter con coro y fade out) 
|----------------------------|---------------------| 
|----------------------------|---------------------| 
|-4--------------4-7-9-7---4-|-------------4---2-4-|(x6) es lo que se escucha hasta que se pierde 
|----2-4-5--4-2----------7---|-2-4-5--4-2----5-----|

 A
        A        
lmafuerte

Este fichero es trabajo propio de su transcriptor y representa su interpretación personal de la canción. El material contenido en esta página es para exclusivo uso privado, por lo que se prohibe su reproducción o retransmisión, así como su uso para fines comerciales.