Dijo el droguero al drogador (TAB)


Simbolos: / arrastar de una nota a otra 
          a harmonicos naturales 
          ~ vibrato 
          x(x) estirar la nota x hasta que suene como (x) 
 
E|-------------------------------------------------------------------------------------------- 
B|-------------------------------------------------------------------------------------------- 
G|-------------------------------------------------------------------------------------------- 
D|-------------------------------------------------------------------------------------------- 
A|-------------------------------------------------------------------------------------------- 
E|-------------------------------------------------------------------------------------------- 
 
Intro 
 
E|-------------------------------------------------------------------------------------------- 
B|-------------------------------------------------------------------------------------------- 
G|-------------------------------------------------------------------------------------------- 
D|-2--5--2----7/6-----2--5--2------------2--5--2----7/6----2--4--5---2--4--5------------------ 
A|-2--5--2----5/4-----2--5--2----8/7-----2--5--2----5/4----2--4--5---2--4--5------------------ 
E|-0--3--0------------0--3--0----6/5-----0--3--0-----------0--2--3---0--2--3------------------ 
 
Riff principal 
 
E|-------------------------------------------------------------------------------------------- 
B|-------------------------------------------------------------------------------------------- 
G|-------------------------------------------------------------------------------------------- 
D|-2-----5----7/6-----------5---2-----5------------------------------------------------------- 
A|-2-----5----5/4-4-4-4-5-7-----2-----5-----8/7----------------------------------------------- 
E|-0-0-0-3-0--------------------0-0-0-3-0---6/5-5-5-5-5-6--3~--------------------------------- 
 
Base 
 
E|------------------------------------------------------------3--3------------------------------ 
B|------------------------------------------------------------3--3--------11-11----------------- 
G|------------------------------------------------------------0--0--------10-10----------------- 
D|------------------------------------------------------------0--0--------8--8------------------ 
A|------------------------------------------------------------2--2------------------------------ 
E|--00-00-00-00-00-00-00-00-00-00-00-00-00-00-00-00-----------3--3------------------------------ 
 
Decir no a la droga es negar a D
        D        
ios D
        D        
ijo el droguero al drogador El otro verso (el de 'por eso me encerre, frente al televisor'), usa el riff principal con algunos cambios en el orden del final. Transporte despues del riff del bajo solo a a a E|------------------------12-14-15--14-15-17-17(19)---7---------------------------------------- B|---------------------12-------------------------------7-------------------------------------- G|-------------9-11-12------------------------------------7-----2/3---------------------------- D|-----------9--------------------------------------------------------------------------------- A|----7-9-10----------------------------------------------------------------------------------- E|--7------------------------------------------------------------------------------------------ Los solos son todos en MI
       MI       
, es al pedo transcribirlos, si les da el cuero para hacer esos solos obviamente no van a necesitar que los transcriba! :)

 A
        A        
lmafuerte

Este fichero es trabajo propio de su transcriptor y representa su interpretación personal de la canción. El material contenido en esta página es para exclusivo uso privado, por lo que se prohibe su reproducción o retransmisión, así como su uso para fines comerciales.