Dijo el droguero al drogador (BAJ) (3)


El tema se compone de 3 riffs, aca los paso 
y fijense a donde va cada uno. 
 
Riff 1(intro): 
G|-----------------------------------| 
D|-----------------------------------| 
A|-------------5-4-------------------| 
E|-0-2-3-0-2-3-------0-2-3-0-2-3-6-5-| 
 
G|-----------------------------------| 
D|-----------------------------------| 
A|-------------5-4-------------------| 
E|-0-2-3-0-2-3---------0-2-3---0-2-3-| 
 
Riff 2: 
G|------------------------------------------| 
D|------------------------------------------| 
A|-------------5-4/10-----------------------| 
E|-0-0-0-0-3/0----------0-0-0-0-3-5-6-5/7/3-| 
 
Riff 3: 
G|-----------------------------| 
D|-----------------------------| 
A|-----------------------------| 
E|-0-0-0-0-0-0-0-...-3-3---6-5-|

 A
        A        
lmafuerte

Este fichero es trabajo propio de su transcriptor y representa su interpretación personal de la canción. El material contenido en esta página es para exclusivo uso privado, por lo que se prohibe su reproducción o retransmisión, así como su uso para fines comerciales.