Desencuentro (TAB) (3)


Intro:

e|-----------------------------------------------------------
B|-----------------------------------------------------------
G|-----------------------------------------------------------
D|-5-5--3h5h3----------------------5--3h5h3------------------
A|-3----------6h5-6h5-3-5h3-2v--5-----------6h4-6h4-3-3h1----
E|------------------------------3-------------------------5v-

------------------------------------------------
------------------------------------------------
------------------------------------------------
------------------------------------------------
---3s6v--5-3-6h5h3-6---6-5h6h5h3-6h5h3-6v--(6)v-
-1-------------------3--------------------------

--------------------------------------------7-8-10-15v-13v-11v-10v-|
-------------------------------------6-8-10------------------------|
-------------------------------5-7-8-------------------------------|
---------5-6h5-----------5-6-8-------------------------------------|
---5-6-8-------8h6h5-6-8-------------------------------------------|
-8-----------------------------------------------------------------|

solo:

e|----------15-18-16-15-------15-----------------15-16-18-18b--18v-
B|-------16-------------18-16----18-16-15-18v-18-------------------
G|-5--17-----------------------------------------------------------
D|-5---------------------------------------------------------------
A|-3---------------------------------------------------------------
E|-----------------------------------------------------------------

----------18-16-15----15------------------------15-16-15-------
----15-16----------18----18-16-18-16-15----15b-----------18-16-
-17-------------------------------------17---------------------
---------------------------------------------------------------
---------------------------------------------------------------
---------------------------------------------------------------

--------------------------------------------------------------
-18-16-15-----------------------------------------------------
----------17-16-----------------------------------------------
----------------17-15----17-15-------15-----------------------
----------------------18-------18-17----18-17-15----17-15-----
-------------------------------------------------18-------15v-

-------------------------------------------------------------
----------------15-16-15----------15-16-------15-------------
----------15-------------17-14-17-------13-15-------15-------
----15-18----18----------------------------------15----18-17-
-17----------------------------------------------------------
-------------------------------------------------------------

---------------------------------------------------------------
--------------------------------------16-18--|18be|-16-15------
-------16-----------------------15-17---------------------16be-
-18-15----17-15-17-15-17-----17--------------------------------
-------------------------15v-----------------------------------
---------------------------------------------------------------

-20-22-21-19-22-21-19-17-15-19-17-15----17-15-------15-------
-------------------------------------18-------18-17----18-17-
-------------------------------------------------------------
-------------------------------------------------------------
-------------------------------------------------------------
-------------------------------------------------------------

-------------------------------------------------------------
-15-18-17-15----15-------------------------------------------
-------------17----17-16-14-17-16-14----16-14-------14-------
-------------------------------------17-------17-16----17-16-
-------------------------------------------------------------
-------------------------------------------------------------

-------------------|
-------------------|
-------------------|
-14-17-16-14-------|
-------------17-14-|
-------------------|

punteo final:

e|-8b--8h6---------------------------------------------|
B|---------8-7-5-5h7h5v-5b-----------------------------|
G|-------------------------7h5---5-7h5---------------5-|
D|-----------------------------7-------7-5-7h5----5--5-|
A|---------------------------------------------7--5--3-|
E|------------------------------------------------3----|

 A
        A        
lmafuerte

Este fichero es trabajo propio de su transcriptor y representa su interpretación personal de la canción. El material contenido en esta página es para exclusivo uso privado, por lo que se prohibe su reproducción o retransmisión, así como su uso para fines comerciales.