Del entorno (TAB) (2)


Solo:

E|--16p-12-16p-12-16p-12-16p-12-16p-12-16p-12-14p-11----11-|
B|---------------------------------------------------12----|
G|---------------------------------------------------------|
D|---------------------------------------------------------|
A|---------------------------------------------------------|
E|---------------------------------------------------------|


--14p-11-14p-11-14p-11-14p-11-------------------------|
------------------------------12p-8-12p-8-12p-8-12p-8-|
------------------------------------------------------|
------------------------------------------------------|
------------------------------------------------------|
------------------------------------------------------|


--------------------------------------------------|
--12p-8-12p-8-------------------------------------|
--------------11p-7-11p-7-11p-7-11p-7-11p-7-11p-7-|
--------------------------------------------------|
--------------------------------------------------|
--------------------------------------------------|


--16p12-16p12-16p12-16p12-16p12-16p12-16p12-16p12-16p12-14p11----11-14-|
--------------------------------------------------------------12-------|
-----------------------------------------------------------------------|
-----------------------------------------------------------------------|
-----------------------------------------------------------------------|
-----------------------------------------------------------------------|


--14-11----11-14-11-14-11----11-14-11-------------------------------------|
--------12----------------12----------12p-8-12p-8-12p-8-12p-8-12p-8-12p-8-|
--------------------------------------------------------------------------|
--------------------------------------------------------------------------|
--------------------------------------------------------------------------|
--------------------------------------------------------------------------|



--------------------------------------------------------------------|
--12p-8-12p-8-12p-8-------------------------------------------------|
--------------------11p-7-11p-7-11p-7-11p-7-11p-7-11p-7-7-7-7-7-7-7-|
--------------------------------------------------------------------|
--------------------------------------------------------------------|
--------------------------------------------------------------------|



--------------------------------------------------------------|
--15b------15-12-14-12----12-14-12-14-12-15-12-15-12-17----15-|
-----------------------15-------------------------------15----|
--------------------------------------------------------------|
--------------------------------------------------------------|
--------------------------------------------------------------|


-------------------------------------------------------|
--15-12-17-15-15-14-12-15-12-12---------------------12-|
--------------------------------15-12------14-12-------|
--------------------------------------14---------14----|
-------------------------------------------------------|
-------------------------------------------------------|

---------------------------------------------|
------------------------------------15s--17--|
--15s-12-12----------------------------------|
------------14-14-12-------------------------|
---------------------14-12---12s-------------|
---------------------------------------------|

--19-12-18-12-19-12-19-12-19-12-18-12-19-12-17-12-|
--------------------------------------------------|
--------------------------------------------------|
--------------------------------------------------|
--------------------------------------------------|
--------------------------------------------------|

--17-16-12-15-12-14-12----12v------17-17-15-|
-----------------------15-------------------|
--------------------------------------------|
--------------------------------------------|
--------------------------------------------|
--------------------------------------------|

--19-17-15----------------------------------------------------------------|
-----------18-17-15----15-17-18-17-15-------------------------------------|
--------------------17----------------17-16-17-16-14----14-16-14----------|
-----------------------------------------------------17----------17-16-14-|
--------------------------------------------------------------------------|
--------------------------------------------------------------------------|

-----------------------------------------|
-----------------------------------------|
-----------------------------------------|
-----14----------------------------------|
--17----17-15-14-15-14-------------------|
-----------------------17-15-14-15-14-12-|

-----------------------------------------------------------------|
-----------------------------------------------------15-13-------|
--------------------------------------16-14-13-------------14-12-|
-----------------------------------------------16-14-------------|
--14-12-14-12----12-14-12-15-14-15-17----------------------------|
--------------15-------------------------------------------------|

-------------------------14-15-17-15-17-18-17-18---19v-|
-------------------------------------------------------|
---------16-14-----------------------------------------|
--12S-16-------17s--12---------------------------------|
-------------------------------------------------------|
-------------------------------------------------------|

x - nota muerta
> - nota acentuada
v - vibrato
s - arrastrar cuerda
p - hummer

 A
        A        
lmafuerte

Este fichero es trabajo propio de su transcriptor y representa su interpretación personal de la canción. El material contenido en esta página es para exclusivo uso privado, por lo que se prohibe su reproducción o retransmisión, así como su uso para fines comerciales.