Debes Saberlo (TAB) (2)


e----------------------------------------------------------
B----------------------------------------------------------
G----------------------------------------------------------
D---2---2--5--4--0--2-----------------------------2-------- ----> Intro x4
A---2-----------------2---------------------------2--------
E---0----------------------0---6--5--3--5--0--3---0--------


Me quede sin nada de tanto por decirte
e----------------------------------------------------------
B----------------------------------------------------------
G----------------------------------------------------------
D---2----------2--4--4-4-4---------------------------------
A---2----4--5--0--2--2-2-2---------------------------------
E---0----2--3----------------------------------------------

tan solo soy uno mas que junto a vos resiste hoy.
e---------------------------------------------------------
B---------------------------------------------------------
G---------------------------------------------------------
D-4--2-----7--------------9-------------------------------
A-2--0--5--5--7-----------7-------------------------------
E-------3-----5--5--3--0-------6--5--3--5--0--3-----------

Abandonado,    de toda inspiración
e---------------------------------------------------
B--------------------------------8-7----------------
G-----------------------------7-9---9-7-6-----------
D---2----------2--4--------7-9------------9-7-------
A---2----4--5--0--2---------------------------5-----
E---0----2--3---------------------------------3-----

estoy perdido estoy deshecho.
e---------------------------------
B---------------------------------
G---------------------------------
D--7-----------9-----9-8-7--------
A--5--7--------7-----7-6-5--------
E-----5--5--3---------------0-1-2-

Sin poder esquivar el dolor ajeno,
e-------------------------------------------
B-------------------------------------------
G-------------------------------------------
D-------8-8-7-------10-8-7-5----------------
A--5--8-6-6-5--5--8-8--6-5-3----------------
E--3--6--------3--6-------------------------

sin creer haber sido jamás todo lo que soy para vos.
e-------------------------------------------
B-------------------------------------------
G-------------------------------------------
D-------8-8-7--5--7-------------------------
A--5--8-6-6-5--3--5-------------------------
E--3--6-------------------------------------

Intro x2

(igual que antes)
Sólo es un mal día repite mi amor
yo desputo el vicio buscando la intuición,
todo es vacio de jubilos espumantes
todo es violencia todo apunta al desmadre.

Si no hay amor mejor bajate
e-------------------------------------------
B-------------------------------------------
G-------------------------------------------
D-------8-8-7-------10-8-7-5----------------
A--5--8-6-6-5--5--8-8--6-5-3----------------
E--3--6--------3--6-------------------------

si no hay amor nunca habrá sueños
e-------------------------------------------
B-------------------------------------------
G-------------------------------------------
D-------8-8-7-------10-8-7-5----------------
A--5--8-6-6-5--5--8-8--6-5-3----------------
E--3--6--------3--6-------------------------

si no hay amor se muere antes
e-------------------------------------------
B-------------------------------------------
G-------------------------------------------
D-------8-8-7-------10-8-7-5----------------
A--5--8-6-6-5--5--8-8--6-5-3----------------
E--3--6--------3--6-------------------------

si no hay amor se pierde siempre.
e-------------------------------------------
B-------------------------------------------
G-------------------------------------------
D-------8-8-7--5----------------------------
A--5--8-6-6-5--3----------------------------
E--3--6-------------------------------------

Debes saberlo, si no hay amor, se pierde siempre,
e-------------------------------------------------------------
B-------5-6----5-6-5-------5-6-5-6-8-7-6--------5-6----5-6-5--
G------------3--------5-5----------------------------3--------
D-5-5---2-3--3-2-3-2--5-5--2-3-2-3-5-4-3--5-5---2-3--3-2-3-2--
A-5-5--------1--------3-3-----------------5-5--------1--------
E-3-3-------------------------------------3-3-----------------

si no hay amor no hay razón
e-------------------------------------------
B-------------------------------------------
G-----------7-6-4--7-6-4--6-5-3--5-4-2------
D--------------------------------------5--3-
A--------------------------------------5--3-
E--------------------------------------3--1-

Punteo antes del solo. lo podes acompañar con estos acordes  --

-> G
        G        
 F
        F        
 C
        C        
 G
        G        
A#
       A#       
   F
        F        
 D
        D        
D#
       D#       
 F
        F        
  e--------------------------------------------------------------5------- B----------------------------4-4-4-3----------6-6-6----------7--------- G-----------3-3-3-2------3-5------------------------5------7-----8--10- D-------3-5----------5-5------------------6-8----------7-7-------8--10- A--5--5--------------3----------------8-8--------------5---------6--8-- E--3----------------------------------6-------------------------------- SOLO: G
        G        
A#
       A#       
 C
        C        
  ---> x4 (repite estribillo como antes) Si no hay amor mejor bajate si no hay amor nunca habrá sueños si no hay amor se muere antes si no hay amor se pierde siempre (repite tambien como antes) Debes saberlo, que si no hay amor, se pierde siempre si no hay amor no hay razón, mejor bajate,si no hay amor se pierde siempre. FINAL: e----------------------------------------------- B----------------------------------------------- G-----------7-6-4--7-6-4--6-5-3--5-4-2---------- D--------------------------------------5--3---5-- A--------------------------------------5--3---5-- E--------------------------------------3--1---3-- Aguante A
        A        
LMAFUERTE
        E        
 y UNION de Santa F
        F        
e!!!!

 A
        A        
lmafuerte

Este fichero es trabajo propio de su transcriptor y representa su interpretación personal de la canción. El material contenido en esta página es para exclusivo uso privado, por lo que se prohibe su reproducción o retransmisión, así como su uso para fines comerciales.