Amistades de tierra adentro (BAJ) (2)


Si necesitas una tab en especial escríbeme...

http://www.myspace.com/alejandrolauyola


                               |----3----|
     E
        E        
.  E
        E        
.  E
        E        
Q  E
        E        
 E
        E        
Q Q Q Q  E
        E        
 E
        E        
G||-------------------------|-----------------------------| D||-------------------------|-----------------------------| A||-------------------------|-----------------------------| E||--4---4---4--L----4S--6--|--4----4----4----L----4S--6--| |----3----| |----3----| Q Q Q Q  E
        E        
 E
        E        
Q Q Q Q Q -----------------------------|---------------------------| -----------------------------|---------------------------| -----------------------------|---------------------------| --4----4----4----L----4S--6--|--4----4----4----L----4----|  E
        E        
Q.  E
        E        
Q.  E
        E        
Q.  E
        E        
Q. W ----------------------|----------------------|-------------------| --5---------2---------|----------------------|-------------------| ----------------------|--5---------3---------|-------------------| ----------------------|----------------------|--2----------------| W W H  E
        E        
 E
        E        
 E
        E        
 E
        E        
-------------------|-------------------|-----------------------| -------------------|-------------------|-----------------------| -------------------|-------------------|--3-----------3--2--0--| --2----------------|--2----------------|-----------------------|  E
        E        
 E
        E        
 E
        E        
 E
        E        
 E
        E        
 E
        E        
 E
        E        
 E
        E        
 E
        E        
 E
        E        
 E
        E        
 E
        E        
 E
        E        
 E
        E        
 E
        E        
 E
        E        
--------------------------|--------------------------| --------------------------|--------------------------| --------------------0--0--|-----------------3--2--0--| --2--2--2--2--2--2--------|--2--2--2--2--2-----------|  E
        E        
 E
        E        
 E
        E        
 E
        E        
 E
        E        
 E
        E        
 E
        E        
 E
        E        
 E
        E        
 E
        E        
 E
        E        
 E
        E        
 E
        E        
 E
        E        
 E
        E        
 E
        E        
--------------------------|--------------------------| --------------------------|--------------------------| --------------------0--0--|-----------------3--2--0--| --2--2--2--2--2--2--------|--2--2--2--2--2-----------|  E
        E        
 E
        E        
 E
        E        
 E
        E        
 E
        E        
 E
        E        
 E
        E        
 E
        E        
 E
        E        
 E
        E        
 E
        E        
 E
        E        
 E
        E        
 E
        E        
 E
        E        
 E
        E        
--------------------------|--------------------------| --------------------------|--------------------------| --------------------0--0--|-----------------3--2--0--| --2--2--2--2--2--2--------|--2--2--2--2--2-----------|  E
        E        
 E
        E        
 E
        E        
 E
        E        
 E
        E        
 E
        E        
 E
        E        
 E
        E        
 E
        E        
 E
        E        
 E
        E        
 E
        E        
 E
        E        
 E
        E        
 E
        E        
 E
        E        
--------------------------|--------------------------| --------------------------|--------------------------| --------------------0--0--|-----------------3--2--0--| --2--2--2--2--2--2--------|--2--2--2--2--2-----------| S S S S S S S S S S S S S S E
        E        
 E
        E        
S S S S E
        E        
 E
        E        
S S S S E
        E        
---------------------------------|------------------------------| ---------------------------------|------------------------------| ---------------------------------|------------------------------| --4-4-4-4-4-4-4-4-4-4-4-4-4-4-7--|--6--6-6-6-6-6--5--5-5-5-5-5--| S S S S S S S S S S S S S S S S Q  E
        E        
Q S S Q ----------------------------------|------------------------| ----------------------------------|---------------6-4-6----| ----------------------------------|--2-------2-------------| --4-4-4-4-4-4-4-4-4-4-4-4-4-4-0-0-|-------4----------------|  E
        E        
 E
        E        
 E
        E        
 E
        E        
 E
        E        
 E
        E        
 E
        E        
 E
        E        
 E
        E        
 E
        E        
 E
        E        
 E
        E        
 E
        E        
 E
        E        
 E
        E        
 E
        E        
--------------------------|--------------------------| --------------------------|--------------------------| --2--2--2--2--2--2--2--2--|--------------------------| --------------------------|--5--5--5--5--4--4--4--4--|  E
        E        
 E
        E        
 E
        E        
 E
        E        
 E
        E        
 E
        E        
 E
        E        
 E
        E        
 E
        E        
 E
        E        
 E
        E        
 E
        E        
 E
        E        
 E
        E        
 E
        E        
 E
        E        
--------------------------|--------------------------| --------------------------|--------------------------| --2--2--2--2--2--2--2--2--|--0--0--2--2--2--2--2--2--| --------------------------|--------------------------|  E
        E        
 E
        E        
 E
        E        
 E
        E        
 E
        E        
 E
        E        
 E
        E        
 E
        E        
 E
        E        
 E
        E        
 E
        E        
 E
        E        
 E
        E        
 E
        E        
 E
        E        
 E
        E        
--------------------------|--------------------------| --------------------------|--------------------------| --------------------------|--5--5--5--5--5--5--5--5--| --3--3--3--3--3--3--3--3--|--------------------------|  E
        E        
 E
        E        
 E
        E        
 E
        E        
 E
        E        
 E
        E        
 E
        E        
 E
        E        
 E
        E        
 E
        E        
 E
        E        
 E
        E        
 E
        E        
 E
        E        
 E
        E        
 E
        E        
--------------------------|--------------------------| --------------------------|--------------------------| --0--0--0--0--0--0--0--0--|--0--0--0--0--0--0--0--0--| --------------------------|--------------------------|  E
        E        
 E
        E        
 E
        E        
 E
        E        
 E
        E        
 E
        E        
 E
        E        
 E
        E        
 E
        E        
 E
        E        
 E
        E        
 E
        E        
 E
        E        
 E
        E        
 E
        E        
 E
        E        
--------------------------|--------------------------| --------------------------|--------------------------| --------------------------|--5--5--5--5--------------| --3--3--3--3--3--3--3--3--|--------------5--5--5--5--|  E
        E        
 E
        E        
 E
        E        
 E
        E        
 E
        E        
 E
        E        
 E
        E        
 E
        E        
 E
        E        
.  E
        E        
. Q Q. --------------------------|----------------------| --------------------------|----------------------| --------------------------|--7---6---5-----------| --0--0--0--0--0--0--0--0--|----------------------|  E
        E        
.  E
        E        
. Q Q.  E
        E        
 E
        E        
 E
        E        
 E
        E        
 E
        E        
 E
        E        
 E
        E        
 E
        E        
----------------------|--------------------------| ----------------------|--------------------------| --5---4---3-----------|--------------------0--0--| ----------------------|--2--2--2--2--2--2--------|  E
        E        
 E
        E        
 E
        E        
 E
        E        
 E
        E        
 E
        E        
 E
        E        
 E
        E        
 E
        E        
 E
        E        
 E
        E        
 E
        E        
 E
        E        
 E
        E        
 E
        E        
 E
        E        
--------------------------|--------------------------| --------------------------|--------------------------| -----------------3--2--0--|--------------------0--0--| --2--2--2--2--2-----------|--2--2--2--2--2--2--------|  E
        E        
 E
        E        
 E
        E        
 E
        E        
 E
        E        
 E
        E        
 E
        E        
 E
        E        
 E
        E        
 E
        E        
 E
        E        
 E
        E        
 E
        E        
 E
        E        
 E
        E        
 E
        E        
--------------------------|--------------------------| --------------------------|--------------------------| -----------------3--2--0--|--------------------0--0--| --2--2--2--2--2-----------|--2--2--2--2--2--2--------|  E
        E        
 E
        E        
 E
        E        
 E
        E        
 E
        E        
 E
        E        
 E
        E        
 E
        E        
 E
        E        
 E
        E        
 E
        E        
 E
        E        
 E
        E        
 E
        E        
 E
        E        
 E
        E        
--------------------------|--------------------------| --------------------------|--------------------------| -----------------3--2--0--|--------------------0--0--| --2--2--2--2--2-----------|--2--2--2--2--2--2--------|  E
        E        
 E
        E        
 E
        E        
 E
        E        
 E
        E        
 E
        E        
 E
        E        
 E
        E        
S S S S S S S S S S S S S S E
        E        
--------------------------|---------------------------------| --------------------------|---------------------------------| -----------------3--2--0--|---------------------------------| --2--2--2--2--2-----------|--4-4-4-4-4-4-4-4-4-4-4-4-4-4-7--|  E
        E        
S S S S E
        E        
 E
        E        
S S S S E
        E        
S S S S S S S S S S S S S S S S ------------------------------|----------------------------------| ------------------------------|----------------------------------| ------------------------------|----------------------------------| --6--6-6-6-6-6--5--5-5-5-5-5--|--4-4-4-4-4-4-4-4-4-4-4-4-4-4-0-0-| Q  E
        E        
Q S S Q  E
        E        
 E
        E        
 E
        E        
 E
        E        
 E
        E        
 E
        E        
 E
        E        
 E
        E        
------------------------|--------------------------| ---------------6-4-6----|--------------------------| --2-------2-------------|--2--2--2--2--2--2--2--2--| -------4----------------|--------------------------|  E
        E        
 E
        E        
 E
        E        
 E
        E        
 E
        E        
 E
        E        
 E
        E        
 E
        E        
 E
        E        
 E
        E        
 E
        E        
 E
        E        
 E
        E        
 E
        E        
 E
        E        
 E
        E        
--------------------------|--------------------------| --------------------------|--------------------------| --------------------------|--2--2--2--2--2--2--2--2--| --5--5--5--5--4--4--4--4--|--------------------------|  E
        E        
 E
        E        
 E
        E        
 E
        E        
 E
        E        
 E
        E        
 E
        E        
 E
        E        
 E
        E        
 E
        E        
 E
        E        
 E
        E        
 E
        E        
 E
        E        
 E
        E        
 E
        E        
--------------------------|--------------------------| --------------------------|--------------------------| --0--0--2--2--2--2--2--2--|--------------------------| --------------------------|--3--3--3--3--3--3--3--3--|  E
        E        
 E
        E        
 E
        E        
 E
        E        
 E
        E        
 E
        E        
 E
        E        
 E
        E        
 E
        E        
 E
        E        
 E
        E        
 E
        E        
 E
        E        
 E
        E        
 E
        E        
 E
        E        
--------------------------|--------------------------| --------------------------|--------------------------| --5--5--5--5--5--5--5--5--|--0--0--0--0--0--0--0--0--| --------------------------|--------------------------|  E
        E        
 E
        E        
 E
        E        
 E
        E        
 E
        E        
 E
        E        
 E
        E        
 E
        E        
 E
        E        
 E
        E        
 E
        E        
 E
        E        
 E
        E        
 E
        E        
 E
        E        
 E
        E        
--------------------------|--------------------------| --------------------------|--------------------------| --0--0--0--0--0--0--0--0--|--------------------------| --------------------------|--3--3--3--3--3--3--3--3--|  E
        E        
 E
        E        
 E
        E        
 E
        E        
 E
        E        
 E
        E        
 E
        E        
 E
        E        
 E
        E        
 E
        E        
 E
        E        
 E
        E        
 E
        E        
 E
        E        
 E
        E        
 E
        E        
--------------------------|--------------------------| --------------------------|--------------------------| --5--5--5--5--------------|--------------------------| --------------5--5--5--5--|--0--0--0--0--0--0--0--0--|  E
        E        
.  E
        E        
. Q Q.  E
        E        
.  E
        E        
. Q Q. ----------------------|----------------------| ----------------------|----------------------| --7---6---5-----------|--5---4---3-----------| ----------------------|----------------------|  E
        E        
 E
        E        
 E
        E        
 E
        E        
 E
        E        
 E
        E        
 E
        E        
 E
        E        
 E
        E        
 E
        E        
 E
        E        
 E
        E        
 E
        E        
 E
        E        
 E
        E        
 E
        E        
--------------------------|--------------------------| --------------------------|--------------------------| --------------------0--0--|-----------------3--2--0--| --2--2--2--2--2--2--------|--2--2--2--2--2-----------|  E
        E        
 E
        E        
 E
        E        
 E
        E        
 E
        E        
 E
        E        
 E
        E        
 E
        E        
 E
        E        
 E
        E        
 E
        E        
 E
        E        
 E
        E        
 E
        E        
 E
        E        
 E
        E        
--------------------------|--------------------------| --------------------------|--------------------------| --------------------0--0--|-----------------3--2--0--| --2--2--2--2--2--2--------|--2--2--2--2--2-----------| S S S S S S S S S S S S S S S S S S S S S S S S S S S S S S S S ----------------------------------|----------------------------------| ----------------------------------|----------------------------------| ----------------------------------|----------------------------------| --4-4-4-4-4-4-4-4-4-4-4-4-4-4-4-4-|--4-4-4-4-4-4-4-4-4-4-4-4-4-4-4-4-| S S S S S S S S S S S S S S S S S S S S S S S S S S S S S S S S ----------------------------------|----------------------------------| ----------------------------------|----------------------------------| ----------------------------------|----------------------------------| --4-4-4-4-4-4-4-4-4-4-4-4-4-4-4-4-|--4-4-4-4-4-4-4-4-4-4-4-4-4-4-4-4-|  E
        E        
 E
        E        
 E
        E        
 E
        E        
 E
        E        
 E
        E        
 E
        E        
 E
        E        
 E
        E        
 E
        E        
 E
        E        
 E
        E        
 E
        E        
 E
        E        
 E
        E        
 E
        E        
--------------------------|--------------------------| --------------------------|--------------------------| --2--2--2--2--2--2--2--2--|--------------------------| --------------------------|--5--5--5--5--4--4--4--4--|  E
        E        
 E
        E        
 E
        E        
 E
        E        
 E
        E        
 E
        E        
 E
        E        
 E
        E        
 E
        E        
 E
        E        
 E
        E        
 E
        E        
 E
        E        
 E
        E        
 E
        E        
 E
        E        
--------------------------|--------------------------| --------------------------|--------------------------| --2--2--2--2--2--2--2--2--|--0--0--2--2--2--2--2--2--| --------------------------|--------------------------|  E
        E        
 E
        E        
 E
        E        
 E
        E        
 E
        E        
 E
        E        
 E
        E        
 E
        E        
 E
        E        
 E
        E        
 E
        E        
 E
        E        
 E
        E        
 E
        E        
 E
        E        
 E
        E        
--------------------------|--------------------------| --------------------------|--------------------------| --------------------------|--5--5--5--5--5--5--5--5--| --3--3--3--3--3--3--3--3--|--------------------------|  E
        E        
 E
        E        
 E
        E        
 E
        E        
 E
        E        
 E
        E        
 E
        E        
 E
        E        
 E
        E        
 E
        E        
 E
        E        
 E
        E        
 E
        E        
 E
        E        
 E
        E        
 E
        E        
--------------------------|--------------------------| --------------------------|--------------------------| --0--0--0--0--0--0--0--0--|--0--0--0--0--0--0--0--0--| --------------------------|--------------------------|  E
        E        
 E
        E        
 E
        E        
 E
        E        
 E
        E        
 E
        E        
 E
        E        
 E
        E        
 E
        E        
 E
        E        
 E
        E        
 E
        E        
 E
        E        
 E
        E        
 E
        E        
 E
        E        
--------------------------|--------------------------| --------------------------|--------------------------| --------------------------|--5--5--5--5--------------| --3--3--3--3--3--3--3--3--|--------------5--5--5--5--|  E
        E        
 E
        E        
 E
        E        
 E
        E        
 E
        E        
 E
        E        
 E
        E        
 E
        E        
 E
        E        
 E
        E        
 E
        E        
 E
        E        
 E
        E        
 E
        E        
 E
        E        
 E
        E        
--------------------------|--------------------------| --------------------------|--------------------------| --------------------------|--------------------------| --0--0--0--0--0--0--0--0--|--0--0--0--0--0--0--0--0--| W W W -------------------|-------------------|-------------------| -------------------|-------------------|-------------------| -------------------|-------------------|-------------------| --2----------------|--2----------------|--2----------------| H  E
        E        
 E
        E        
 E
        E        
 E
        E        
 E
        E        
 E
        E        
 E
        E        
 E
        E        
 E
        E        
 E
        E        
 E
        E        
 E
        E        
-----------------------|--------------------------| -----------------------|--------------------------| --3-----------3--2--0--|--------------------0--0--| -----------------------|--2--2--2--2--2--2--------|  E
        E        
 E
        E        
 E
        E        
 E
        E        
 E
        E        
 E
        E        
 E
        E        
 E
        E        
 E
        E        
 E
        E        
 E
        E        
 E
        E        
 E
        E        
 E
        E        
 E
        E        
 E
        E        
--------------------------|--------------------------| --------------------------|--------------------------| -----------------3--2--0--|--------------------0--0--| --2--2--2--2--2-----------|--2--2--2--2--2--2--------|  E
        E        
 E
        E        
 E
        E        
 E
        E        
 E
        E        
 E
        E        
 E
        E        
 E
        E        
 E
        E        
 E
        E        
 E
        E        
 E
        E        
 E
        E        
 E
        E        
 E
        E        
 E
        E        
--------------------------|--------------------------| --------------------------|--------------------------| -----------------3--2--0--|--------------------0--0--| --2--2--2--2--2-----------|--2--2--2--2--2--2--------|  E
        E        
 E
        E        
 E
        E        
 E
        E        
 E
        E        
 E
        E        
 E
        E        
 E
        E        
 E
        E        
 E
        E        
 E
        E        
 E
        E        
 E
        E        
 E
        E        
 E
        E        
 E
        E        
--------------------------|--------------------------| --------------------------|--------------------------| -----------------3--2--0--|--------------------0--0--| --2--2--2--2--2-----------|--2--2--2--2--2--2--------|  E
        E        
 E
        E        
 E
        E        
 E
        E        
 E
        E        
 E
        E        
 E
        E        
 E
        E        
S S S S S S S S S S S S S S E
        E        
--------------------------|---------------------------------| --------------------------|---------------------------------| -----------------3--2--0--|---------------------------------| --2--2--2--2--2-----------|--4-4-4-4-4-4-4-4-4-4-4-4-4-4-7--|  E
        E        
S S S S E
        E        
 E
        E        
S S S S E
        E        
S S S S S S S S S S S S S S S S ------------------------------|----------------------------------| ------------------------------|----------------------------------| ------------------------------|----------------------------------| --6--6-6-6-6-6--5--5-5-5-5-5--|--4-4-4-4-4-4-4-4-4-4-4-4-4-4-0-0-| Q  E
        E        
Q S S Q  E
        E        
 E
        E        
 E
        E        
 E
        E        
 E
        E        
 E
        E        
 E
        E        
 E
        E        
------------------------|--------------------------| ---------------6-4-6----|--------------------------| --2-------2-------------|--2--2--2--2--2--2--2--2--| -------4----------------|--------------------------|  E
        E        
 E
        E        
 E
        E        
 E
        E        
 E
        E        
 E
        E        
 E
        E        
 E
        E        
 E
        E        
 E
        E        
 E
        E        
 E
        E        
 E
        E        
 E
        E        
 E
        E        
 E
        E        
--------------------------|--------------------------| --------------------------|--------------------------| --------------------------|--2--2--2--2--2--2--2--2--| --5--5--5--5--4--4--4--4--|--------------------------|  E
        E        
 E
        E        
 E
        E        
 E
        E        
 E
        E        
 E
        E        
 E
        E        
 E
        E        
 E
        E        
 E
        E        
 E
        E        
 E
        E        
 E
        E        
 E
        E        
 E
        E        
 E
        E        
--------------------------|--------------------------| --------------------------|--------------------------| --0--0--2--2--2--2--2--2--|--------------------------| --------------------------|--3--3--3--3--3--3--3--3--|  E
        E        
 E
        E        
 E
        E        
 E
        E        
 E
        E        
 E
        E        
 E
        E        
 E
        E        
 E
        E        
 E
        E        
 E
        E        
 E
        E        
 E
        E        
 E
        E        
 E
        E        
 E
        E        
--------------------------|--------------------------| --------------------------|--------------------------| --5--5--5--5--5--5--5--5--|--0--0--0--0--0--0--0--0--| --------------------------|--------------------------|  E
        E        
 E
        E        
 E
        E        
 E
        E        
 E
        E        
 E
        E        
 E
        E        
 E
        E        
 E
        E        
 E
        E        
 E
        E        
 E
        E        
 E
        E        
 E
        E        
 E
        E        
 E
        E        
--------------------------|--------------------------| --------------------------|--------------------------| --0--0--0--0--0--0--0--0--|--------------------------| --------------------------|--3--3--3--3--3--3--3--3--|  E
        E        
 E
        E        
 E
        E        
 E
        E        
 E
        E        
 E
        E        
 E
        E        
 E
        E        
 E
        E        
 E
        E        
 E
        E        
 E
        E        
 E
        E        
 E
        E        
 E
        E        
 E
        E        
--------------------------|--------------------------| --------------------------|--------------------------| --5--5--5--5--------------|--------------------------| --------------5--5--5--5--|--0--0--0--0--0--0--0--0--|  E
        E        
 E
        E        
 E
        E        
 E
        E        
 E
        E        
 E
        E        
 E
        E        
 E
        E        
 E
        E        
 E
        E        
 E
        E        
 E
        E        
 E
        E        
 E
        E        
 E
        E        
 E
        E        
--------------------------|--------------------------| --------------------------|--------------------------| --------------------------|--------------------------| --0--0--0--0--0--0--0--0--|--3--3--3--3--3--3--3--3--|  E
        E        
 E
        E        
 E
        E        
 E
        E        
 E
        E        
 E
        E        
 E
        E        
 E
        E        
 E
        E        
 E
        E        
 E
        E        
 E
        E        
 E
        E        
 E
        E        
 E
        E        
 E
        E        
--------------------------|--------------------------| --------------------------|--------------------------| --5--5--5--5--5--5--5--5--|--0--0--0--0--0--0--0--0--| --------------------------|--------------------------|  E
        E        
 E
        E        
 E
        E        
 E
        E        
 E
        E        
 E
        E        
 E
        E        
 E
        E        
 E
        E        
 E
        E        
 E
        E        
 E
        E        
 E
        E        
 E
        E        
 E
        E        
 E
        E        
--------------------------|--------------------------| --------------------------|--------------------------| --0--0--0--0--0--0--0--0--|--------------------------| --------------------------|--3--3--3--3--3--3--3--3--|  E
        E        
 E
        E        
 E
        E        
 E
        E        
 E
        E        
 E
        E        
 E
        E        
 E
        E        
 E
        E        
 E
        E        
 E
        E        
 E
        E        
 E
        E        
 E
        E        
 E
        E        
 E
        E        
--------------------------|--------------------------| --------------------------|--------------------------| --5--5--5--5--------------|--------------------------| --------------5--5--5--5--|--0--0--0--0--0--0--0--0--|  E
        E        
.  E
        E        
. Q Q.  E
        E        
.  E
        E        
. Q Q. ----------------------|----------------------| ----------------------|----------------------| --7---6---5-----------|--5---4---3-----------| ----------------------|----------------------| |----3----|  E
        E        
E
        E        
E
        E        
Q  E
        E        
 E
        E        
Q Q Q Q  E
        E        
 E
        E        
---------------------------|-----------------------------| ---------------------------|-----------------------------| ---------------------------|-----------------------------| --4----4----4--L----4S--6--|--4----4----4----L----4S--6--| |----3----| |----3----| Q Q Q Q  E
        E        
 E
        E        
Q Q Q Q Q -----------------------------|---------------------------| -----------------------------|---------------------------| -----------------------------|---------------------------| --4----4----4----L----4S--6--|--4----4----4----L----4----|  E
        E        
Q.  E
        E        
Q.  E
        E        
Q.  E
        E        
Q. W ----------------------|----------------------|-------------------| --5---------2---------|----------------------|-------------------| ----------------------|--5---------3---------|-------------------| ----------------------|----------------------|--2----------------| W W W -------------------|-------------------|-------------------| -------------------|-------------------|-------------------| -------------------|-------------------|-------------------| --L----------------|--L----------------|--2----------------| W H. Q -------------------|--------------------|| -------------------|--------------------|| -------------------|--------------------|| --L----------------|--L-----------------|| Si necesitas una tab en especial escríbeme... http://www.myspace.com/alejandrolauyola Duration Legend --------------- W - whole H - half Q - quarter E
        E        
 - 8th S - 16th T - 32nd X - 64th . - note dotted |-n-| - n-tuplets Tablature Legend ---------------- L - tied note x - dead note g - grace note (n) - ghost note > - accentuded note NH - natural harmonic AH - artificial harmonic TH - tapped harmonic SH - semi harmonic PH - pitch harmonic h - hammer on p - pull off b - bend br - bendRelease pb - preBend pbr - preBendRelease brb - bendReleaseBend n/ - tremolo bar dip n - tremolo bar dive -/n - tremolo bar Release up /n - tremolo bar inverted dip /n - tremolo bar return -n - tremolo bar Release down S - shift slide s - legato slide / - slide into from below or out of upwards - slide into from above or out of downwards ~ - vibrato W - wide vibrato tr - trill TP - tremolo picking T - tapping S - slap P - pop < - fade in ^ - brush up v - brush down

 A
        A        
lmafuerte

Este fichero es trabajo propio de su transcriptor y representa su interpretación personal de la canción. El material contenido en esta página es para exclusivo uso privado, por lo que se prohibe su reproducción o retransmisión, así como su uso para fines comerciales.