Amistad de tierra adentro (TAB) (2)


solo:

e|-----------------------------4---4-5-7s9-7-------------------------
B|-3b--5v--5-4-5-4---4-5-7-5-7---7-----------10-9-10-9-7---7---7-9-7-
G|-----------------6-------------------------------------9---9-------
D|-------------------------------------------------------------------
A|-------------------------------------------------------------------
E|-------------------------------------------------------------------

---------------------------------------------------------------------
---------------------------------------------------------------------
-9-8-6-9-8-6---6-8-6-------------------------------------------------
-------------9-------9-7------------------10-11-13----------10-11-13-
-------------------------9-7-9v--10-11-13----------10-11-13----------
---------------------------------------------------------------------

-------------------------------------------------------11-13-15-
----------------------------11-13-14----------11-13-14----------
-10-12-13----------10-12-13----------10-12-13-------------------
----------10-11-13----------------------------------------------
----------------------------------------------------------------
----------------------------------------------------------------

----------11-13-15-11-13-15-13-15-16-13-15-16-15-16-18-15-16-18-16-
-11-13-14----------------------------------------------------------
-------------------------------------------------------------------
-------------------------------------------------------------------
-------------------------------------------------------------------
-------------------------------------------------------------------

-18-16-15-18-16-19b----19v-------------14-14-11----11-11-14-14-14-11-
------------------------------12-12-12----------12-------------------
---------------------------------------------------------------------
---------------------------------------------------------------------
---------------------------------------------------------------------
---------------------------------------------------------------------

----14-14-11-11----11-11-14-14-11-11-------12-12-9----9-9-12-12-12-9-
-12-------------12-------------------12-12---------10----------------
---------------------------------------------------------------------
---------------------------------------------------------------------
---------------------------------------------------------------------
---------------------------------------------------------------------

----12-12-9-9----9-9-12-12-9s19--19-17-15----------------------------
-10-----------10--------------------------19-17-15-19-17-15-------15-
------------------------------------------------------------17-16----
---------------------------------------------------------------------
---------------------------------------------------------------------
---------------------------------------------------------------------

------------------------------------------------------------------
-------------------------------------------8-8-8-8s12--10--8s10-7-
-17-16-14----------14---------------------------------------------
----------17-16-17----17-16-14-------------5-5-5-5s9---7---5s7--4-
-------------------------------17-15-14v--------------------------
------------------------------------------------------------------

---------------12-9----------------------------------------
-7-8-7-5---5v-------12-9-12-9------------------------------
---------7--------------------11-9-11-9--------------------
----------------------------------------9-7-9-7------------
------------------------------------------------9-7-9-7----
--------------------------------------------------------5v-

--------------------------------------12--12--12--|
-8-8-8-8s12--10--8s10--7---5--5--5----15b-15b-15b-|
---------------------------7b-7b-7b---------------|
-5-5-5-5s9---7---5s7---4--------------------------|
--------------------------------------------------|
--------------------------------------------------|

 A
        A        
lmafuerte

Este fichero es trabajo propio de su transcriptor y representa su interpretación personal de la canción. El material contenido en esta página es para exclusivo uso privado, por lo que se prohibe su reproducción o retransmisión, así como su uso para fines comerciales.