Amasijo de un gran sueño (TAB) (3)


ak' les dejo un toqe mejorado el temaso de almafuerte
para q lo puedan a acer Igual a el tano marciello.
el solo cuando lo termine de sacar se los mando,
espero q el tema les sirva para algo, aguante almafuerte carajo,,,!!!
martes 8 de septiembre '09 15:51 hs...

Intro:  Riff x4

Riff:
    e|--------------------|----------------------|
    b|--------------------|----------------------|
    G
        G        
|--------------------|----------------------|  D
        D        
|--4-/9-7------------|--4-4-/9-7------------|  A
        A        
|--2-/7-5------------|--2-2-/7-5--7-7--5-5--|  E
        E        
|----------6-5rp3r0--|------------5-5--3-3--| =BASE= |==E5===========A5====|==E5=============A5=====| e|---------------------|------------------------| b|---------------------|------------------------|  G
        G        
|---------------5/7b--|-----------------4-5/7b-|  D
        D        
|---------------------|------------------------|  A
        A        
|--2-2-2-2------------|--2-2-2-2-2--2-2--------|  E
        E        
|--0-0-0-0--0-0-------|--0-0-0-0-0--0-0--------|  E
        E        
5  A
        A        
5  E
        E        
5  A
        A        
5  F
        F        
ue sin un porque, mi gran sueño amasijado  E
        E        
5  A
        A        
5  E
        E        
5  A
        A        
5 mucho lo llore, por inesperado.  E
        E        
5  A
        A        
5  E
        E        
5  A
        A        
5 Si existe un motivo, a mi no me lo comunicaron  E
        E        
5  A
        A        
E
        E        
5 los que ayer conmigo compartieron tanto |=====C#5====|=====A5=====| Riff e|------------|------------|-----------------|--------------------| b|------------|------------|-----------------|--------------------|  G
        G        
|-5--5-5-5-5-|------------|-----------------|--------------------|  D
        D        
|-5--5-5-5-5-|-7--7-7-7-7-|-4-/9-7----------|-4-4-/9-7-----------|  A
        A        
|-4--4-4-4-4-|-7--7-7-7-7-|-2-/7-5----------|-2-2-/7-5--7-7--5-5-|  E
        E        
|------------|-5--5-5-5-5-|--------6-5rp3r0-|-----------5-5--3-3-|  C#
       C#       
5  A
        A        
5 Riff Pretendieron apartarme y al saberlo, me hice a un lado.  E
        E        
5  A
        A        
E
        E        
5  A
        A        
5  C
        C        
anto mi razon para que quien quiera guarde  E
        E        
5  A
        A        
E
        E        
5 puez voy otra vez nuevamente como antes. |=B5================|=A5============| e|-------------------|---------------|-----------------| b|-------------------|---------------|-----------------|  G
        G        
|-4--4-4-4-4--------|---------------|-----------------|  D
        D        
|-4--4-4-4-4--------|-7--7-7-7-7----|-----------------|  A
        A        
|-2--2-2-2-2--------|-7--7-7-7-7----|-----------------|  E
        E        
|-------------------|-5--5-5-5-5----|-0-1-1-2-3-4-5---|  B
        B        
5  A
        A        
5 Muchos amigos se angustiaron al saber,  B
        B        
5  A
        A        
5 que el sueño mio se quedaba en el ayer.  B
        B        
5  A
        A        
5 Mientras reia el comerciante informador, |==C#5============|=A5=====| riff e|-----------------|--------|-----------------|--------------------| b|-----------------|--------|-----------------|--------------------|  G
        G        
|-6--6------------|-2-2-2--|-----------------|--------------------|  D
        D        
|-6--6------------|-2-2-2--|-4-/9-7----------|-4-4-/9-7-----------|  A
        A        
|-4--4--4-6-7-6-4-|-0-0-0--|-2-/7-5----------|-2-2-/7-5--7-7--5-5-|  E
        E        
|-----------------|--------|--------6-5rp3r0-|-----------5-5--3-3-|  C#
       C#       
5  A
        A        
5 que desprestigia siempre lo que el criollo siente rumoriando, deshonrando |=B5================|=A5============| e|-------------------|---------------|-----------------| b|-------------------|---------------|-----------------|  G
        G        
|-4--4-4-4-4--------|---------------|-----------------|  D
        D        
|-4--4-4-4-4--------|-7--7-7-7-7----|-----------------|  A
        A        
|-2--2-2-2-2--------|-7--7-7-7-7----|-----------------|  E
        E        
|-------------------|-5--5-5-5-5----|-0-1-1-2-3-4-5---|  B
        B        
5  A
        A        
5 Sin detenerme recordando el ayer  B
        B        
5  A
        A        
5 lo que hubo sido, y lo que no pudo ser  B
        B        
5  A
        A        
5 sigo intentando junto al pesado metal |==C#5============|=A5=====| riff e|-----------------|--------|-----------------|--------------------| b|-----------------|--------|-----------------|--------------------|  G
        G        
|-6--6------------|-2-2-2--|-----------------|--------------------|  D
        D        
|-6--6------------|-2-2-2--|-4-/9-7----------|-4-4-/9-7-----------|  A
        A        
|-4--4--4-6-7-6-4-|-0-0-0--|-2-/7-5----------|-2-2-/7-5--7-7--5-5-|  E
        E        
|-----------------|--------|--------6-5rp3r0-|-----------5-5--3-3-|  C#
       C#       
5  A
        A        
5 RIFF
        F        
  Llegar a quien lo sinte, mandando de frente mis verdades. =Solo=(proximamente)lo estoy sacando pero todabia no lo saqe completo |=B5================|=A5============| e|-------------------|---------------|-----------------| b|-------------------|---------------|-----------------|  G
        G        
|-4--4-4-4-4--------|---------------|-----------------|  D
        D        
|-4--4-4-4-4--------|-7--7-7-7-7----|-----------------|  A
        A        
|-2--2-2-2-2--------|-7--7-7-7-7----|-----------------|  E
        E        
|-------------------|-5--5-5-5-5----|-0-1-1-2-3-4-5---|  B
        B        
5  A
        A        
5 Sin detenerme recordando el ayer  B
        B        
5  A
        A        
5 lo que hubo sido, y lo que no pudo ser  B
        B        
5  A
        A        
5 sigo intentando junto al pesado metal |==C#5============|=A5=====| riff e|-----------------|--------|-----------------|--------------------| b|-----------------|--------|-----------------|--------------------|  G
        G        
|-6--6------------|-2-2-2--|-----------------|--------------------|  D
        D        
|-6--6------------|-2-2-2--|-4-/9-7----------|-4-4-/9-7-----------|  A
        A        
|-4--4--4-6-7-6-4-|-0-0-0--|-2-/7-5----------|-2-2-/7-5--7-7--5-5-|  E
        E        
|-----------------|--------|--------6-5rp3r0-|-----------5-5--3-3-|  C#
       C#       
5  A
        A        
5 RIFF
        F        
  Llegar a quien lo sinte, mandando de frente mis verdades. |==E5===========A5====|==E5=============A5=====| e|---------------------|------------------------| b|---------------------|------------------------|  G
        G        
|---------------5/7b--|-----------------4-5/7b-|  D
        D        
|---------------------|------------------------|  A
        A        
|--2-2-2-2------------|--2-2-2-2-2--2-2--------|  E
        E        
|--0-0-0-0--0-0-------|--0-0-0-0-0--0-0--------|  E
        E        
5  A
        A        
5  E
        E        
5  A
        A        
5  F
        F        
ue sin un porque, mi gran sueño amasijado  E
        E        
5  A
        A        
5  E
        E        
5  A
        A        
5 mucho lo llore, por inesperado. |=====C#5====|=====A5=====| Riff e|------------|------------|-----------------|--------------------| b|------------|------------|-----------------|--------------------|  G
        G        
|-5--5-5-5-5-|------------|-----------------|--------------------|  D
        D        
|-5--5-5-5-5-|-7--7-7-7-7-|-4-/9-7----------|-4-4-/9-7-----------|  A
        A        
|-4--4-4-4-4-|-7--7-7-7-7-|-2-/7-5----------|-2-2-/7-5--7-7--5-5-|  E
        E        
|------------|-5--5-5-5-5-|--------6-5rp3r0-|-----------5-5--3-3-|  C#
       C#       
5  A
        A        
5 Riff Pretendieron apartarme y al saberlo, me hice a un lado. |=B5================|=A5============| e|-------------------|---------------|-----------------| b|-------------------|---------------|-----------------|  G
        G        
|-4--4-4-4-4--------|---------------|-----------------|  D
        D        
|-4--4-4-4-4--------|-7--7-7-7-7----|-----------------|  A
        A        
|-2--2-2-2-2--------|-7--7-7-7-7----|-----------------|  E
        E        
|-------------------|-5--5-5-5-5----|-0-1-1-2-3-4-5---|  B
        B        
5  A
        A        
5 Muchos amigos se angustiaron al saber,  B
        B        
5  A
        A        
5 que el sueño mio se quedaba en el ayer.  B
        B        
5  A
        A        
5 Mientras reia el comerciante informador, |==C#5============|=A5=====| riff e|-----------------|--------|-----------------|--------------------| b|-----------------|--------|-----------------|--------------------|  G
        G        
|-6--6------------|-2-2-2--|-----------------|--------------------|  D
        D        
|-6--6------------|-2-2-2--|-4-/9-7----------|-4-4-/9-7-----------|  A
        A        
|-4--4--4-6-7-6-4-|-0-0-0--|-2-/7-5----------|-2-2-/7-5--7-7--5-5-|  E
        E        
|-----------------|--------|--------6-5rp3r0-|-----------5-5--3-3-|  C#
       C#       
5  A
        A        
5 que desprestigia siempre lo que el criollo siente rumoriando, deshonrando. =final= riff. les mando un saludo a todos los chicos de lafe un abraso enorme a mi hermano walter y un besote enorme a mi novia bren qe la amo con toda mi alma.. aguante el tano marciello el mejor violero del mundo... guiardino al lado del tano es una cagada,, jaja

 A
        A        
lmafuerte

Este fichero es trabajo propio de su transcriptor y representa su interpretación personal de la canción. El material contenido en esta página es para exclusivo uso privado, por lo que se prohibe su reproducción o retransmisión, así como su uso para fines comerciales.