Amasijo de un gran sueño (BAJ) (2)


Cuando entra la bateria luego del riff de guitarra: 
3|---------7777- 
4|-55-33-0------ 
 
Riff 1 
 
1|-----------------|--------------- 
2|-----------------|--------------- 
3|-----7-5---------|-----7-5------- x2 
4|-0-0-----565-3-0-|-0-0-----55-33- 
 
Verso (fue sin un porque...) 
 
1|------------------- 
2|------------------- 
3|------------------- x4 
4|-5-5-5-5-0-0-0----- 
 
Pre E
        E        
stribillo (premeditaron apartarme..) 1|------------------------------------------------- 2|------------------------------------------------- 3|--4-4-4-4-4------------7-5-------------7-5------- 4|------------5-5-5--0-0-----565-3-0|-0-0----55-33- Estribillo (muchos amigos...) 1|----------------- 2|----------------- 3|-2-2-2-0-0-0----- x3 4|----------------- pre estribillo Estribillo solo (B A
        A        
) x4 (c#-g) x3 (E) Estribillo Final (riff x 2)

 A
        A        
lmafuerte

Este fichero es trabajo propio de su transcriptor y representa su interpretación personal de la canción. El material contenido en esta página es para exclusivo uso privado, por lo que se prohibe su reproducción o retransmisión, así como su uso para fines comerciales.