Amanecer en Open Door (TAB) (2)


Intro:

e----------------------------------------|
B----------------------------------------|
G----------------------------------------|x2
D--2-2-2-2-2-2--7-5--2-2-2-2-2-2-2--7-5--|
A--2-2-2-2-2-2--5-3--2-2-2-2-2-2-2--3-2--|
E--0-0-0-0-0-0-------0-0-0-0-0-0-0-------|

Riff:

e---------------------------------------------------------------|
B---------------------------------------------------------------|
G---------------------------------------------------------------|
D--2------------------2----------2------------------2---------5-|
A---4-2------------2-4-4-2--------4-2------------2-4-4-2------5-|
E------4-2-0--0-2-4-------4-2-0------4-2-0--0-2-4-------4-2-0-3-|

(El intro de fondo)
Tengo un amigo
Tengo un amigo
Tengo un amigo
Tengo un amigo

Tengo un amigo
Tengo un amigo
Tengo un amigo
Tengo un amigo se!!!

(Riff)

(intro)
Tengo un amigo
Tengo un amigo
Tengo un amigo
Tengo un amigo

Tengo un amigo
Tengo un amigo
Tengo un amigo
Tengo un amigo


Pre-coro:

e---------------------------------|
B---------------------------------|
G---------------------------------|
D--5-7-7-5-5-7--------5-7-7-5-5-7-|
A--5-7-7-5-5-7--------5-7-7-5-5-7-|
E--3-5-5-3-3-5-5^-3-2-3-5-5-3-3-5-|

Amanecer en Open D
        D        
oor Legal crucifixion del ser Coro: Em
       Em       
   C
        C        
 B
        B        
Sin tener familiares  A
        A        
que vengan a reclamarme Em
       Em       
   C
        C        
sin visitas dice el doctor  B
        B        
 A
        A        
es terminal alopidol Gm
       Gm       
  Fm
       Fm       
  Em
       Em       
  solo estoy viendo amanecer (Solo) Tengo un amigo Tengo un amigo Tengo un amigo Tengo un amigo Pre-coro: Amanecer en Open D
        D        
oor Legal crucifixion del ser Coro: Em
       Em       
   C
        C        
 B
        B        
Sin tener familiares  A
        A        
que vengan a reclamarme Em
       Em       
   C
        C        
sin visitas dice el doctor  B
        B        
 A
        A        
es terminal alopidol Gm
       Gm       
  Fm
       Fm       
  Em
       Em       
  solo estoy viendo amanecer ************************************************************** Creo que todo esta perfecto:: Mi mail tambien es D
        D        
an290890Hotmail.com
Buen temazo

 A
        A        
lmafuerte

Este fichero es trabajo propio de su transcriptor y representa su interpretación personal de la canción. El material contenido en esta página es para exclusivo uso privado, por lo que se prohibe su reproducción o retransmisión, así como su uso para fines comerciales.