Almafuerte (TAB) (4)


Referencias 
h = ligado ascendente (hammer-on) 
p = ligado descendente (pull-of) 
/ = slide ascendente 
 = slide descendente 
* = palm muted (tapar las cuerdas con la mano derecha) 
x = nota tapada con la mano izquierda 
b = estirada (bend) 
r = aflojar la estirada (release) 
T = taping 
~ = vibrato 
()= nota fantasma (no se toca pero suena) 
= armonico de pua 
[]= armonica natural 
 
Esta tablatura que voy poner es de la version original del tema, si alguien 
quiere las correcciones para las version del disco de Obras, que me diga. 
 
 
(suenan los dos a la ves) 
Intro_1: 
e|---0(0-0)---0(0-0)---------------------| 
B|-----0(0)-----0(0)---------------------| 
G|-------4-3~-----4-2-2------------------| 
D|------------------2-2------5h7--4h5----|X4 
A|---------------------------5h7--4h5----| 
E|---------------------------------------| 
Intro_2: 
e|---------------------------------------| 
B|---------------------------------------| 
G|---9p8------9p8------------------------| 
D|-------9-8~-----9-7-7~-----------------|X4 
A|---------------------------10---9~-----| 
E|---------------------------------------| 
 
e|---------------------------|----------------------------------------| 
B|---------------------------|----------------------------------------| 
G|---------------------------|----------------------------------------| 
D|-2------xxx5--------2-(2~)-|--------------------------5------2-(2~)-| 
A|-2------xxx3--------0------|--5h7---5h7---5h7---5h7~--3------0------| 
E|-0------xxx----------------|-0---0-0---0-0---0-0--------------------| 
                               *   * *   * *   * * 
 
e|---------------------------------|--------------------------------| 
B|--------8-7----------------------|-------8-7-----------------7~---| 
G|------9-----9-------------9-9-9--|-----9-----9-------------9------| 
D|----9---------9-8~---9-9-9-9-----|---9---------9-8~---9-9-9-------| 
A|--7------------------------------|-7------------------------------| 
E|---------------------------------|--------------------------------| 
    *************      ***** *       *************      ***** 
 
e|---------------------------|----------------------------------------| 
B|---------------------------|----------------------------------------| 
G|---------------------------|----------------------------------------| 
D|-9-------xx5--------2-(2~)-|--------------------------5------7------| 
A|-7-------xx3--------0------|--5h7---5h7---5h7---5h7~--3------4------| 
E|-0-------xx----------------|-0---0-0---0-0---0-0--------------------| 
                               *   * *   * *   * * 
 
e|----------------------------------|----------------------------------| 
B|----------------------------------|----------------------------------| 
G|----------------------------------|----------------------------------| 
D|--7-----12----11----9-------------|--7----11----7-----9~-------------| 
A|--7-----10----9-----7-------------|--5----9-----5-----7~-------------| 
E|--5-------------------------------|----------------------------------| 
 
e|----------------------------------|----------------------------------| 
B|----------------------------------|----------------------------------| 
G|----------------------------------|----------------------------------| 
D|--7-----12----11----9-------------|--7----11----7-----5~-------------| 
A|--7-----10----9-----7-------------|--5----9-----5-----3~-------------| 
E|--5-------------------------------|----------------------------------| 
 
e|---------------------------|----------------------------------------| 
B|---------------------------|----------------------------------------| 
G|---------------------------|----------------------------------------| 
D|-9-------xx5--------2-(2~)-|--------------------------5------2-(2~)-| 
A|-7-------xx3--------0------|--5h7---5h7---5h7---5h7~--3------0------| 
E|-0-------xx----------------|-0---0-0---0-0---0-0--------------------| 
                               *   * *   * *   * * 
 
e|---------------------------------|--------------------------------| 
B|--------8-7----------------------|-------8-7-----------------7~---| 
G|------9-----9-------------9-9-9--|-----9-----9-------------9------| 
D|----9---------9-8~---9-9-9-9-----|---9---------9-8~---9-9-9-------| 
A|--7------------------------------|-7------------------------------| 
E|---------------------------------|--------------------------------| 
    *************      ***** *       *************      ***** 
 
e|---------------------------|----------------------------------------| 
B|---------------------------|----------------------------------------| 
G|---------------------------|----------------------------------------| 
D|-9-------xx5--------2-(2~)-|--------------------------5------7------| 
A|-7-------xx3--------0------|--5h7---5h7---5h7---5h7~--3------4------| 
E|-0-------xx----------------|-0---0-0---0-0---0-0--------------------| 
                               *   * *   * *   * * 
 
e|----------------------------------|----------------------------------| 
B|----------------------------------|----------------------------------| 
G|-14-----12----11----9-------------|----------------------------------| 
D|-14-----12----11----9-------------|--7----11----7-----9~-------------| 
A|-12-----10----9-----7-------------|--5----9-----5-----7~-------------| 
E|----------------------------------|----------------------------------| 
 
e|----------------------------------|----------------------------------| 
B|----------------------------------|----------------------------------| 
G|-14-----12----11----9-------------|----------------------------------| 
D|-14-----12----11----9-------------|--7----11----7-----5~-------------| 
A|-12-----10----9-----7-------------|--5----9-----5-----3~-------------| 
E|----------------------------------|----------------------------------| 
 
 
e|------------------------------------------------------------------------| 
B|------------------------------------------------------------------------| 
G|------------------------------------------------------------------------| 
D|--2-----------5------------7------/14-14-14-14-14-(0)-14-14-14-14-14----|x2 
A|--2-----------5------------5------/12-12-12-12-12-(0)-12-12-12-12-12----| 
E|--0-----------3---------------------------------------------------------| 
 
e|------------------------------------------------------------------------| 
B|------------------------------------------------------------------------| 
G|------------------------------------------------------------------------| 
D|--2-----------5------------7--------------7-----------------------------| 
A|--2-----------5------------5--------------7-----------------------------| 
E|--0-----------3---------------------------5-----------------------------| 
 
e|----------------------------------------------------------------------| 
B|----------------------------------------------------------------------| 
G|----------------------------------------------------------------------| 
D|--5-----------7-------------------------------------------------------| 
A|--3-----------5--------------2-2-2-2-2-2-2-2-2-2-2-2------------------| 
E|-----------------------------0-0-0-0-0-0-0-0-0-0-0-0------------------| 
                               *********************** 
 
e|---0(0-0)---0(0-0)---------------------| 
B|-----0(0)-----0(0)---------------------| 
G|-------4-3~-----4-2-2------------------| 
D|------------------2-2------5h7--4h5----|X2 
A|---------------------------5h7--4h5----| 
E|---------------------------------------| 
 
Esto lo toca con 'semi-armonico' de pua,es decir con la pua 
medio cruzada y dandole fuerte. A
        A        
demas entra una segunda viola (abajo): e|------------------------------------|------------------------------------| B|------------------------------------|------------------------------------| G|---9p8------9p8---------------------|---9p8------9p8---------------------| D|-------9-8~-----9-7-7~--------------|-------9-8~-----9-7-7~--------------| A|---------------------------10---9~--|---------------------------10---9~--| E|------------------------------------|------------------------------------| | | | e|------------------------------------|------------------------------------| B|------------------------------------|------------------------------------| G|------------------------------------|------------------------------------| D|---9-9------9-9------------5----4---|---9-9------9-9------------5----3---| A|---7-7------7-7------------3----2---|---7-7------7-7------------3----1---| E|------------------------------------|------------------------------------| (aca cambia de distorsion) e|--------------------------------------------------------------------------| B|--------------------------------------------------------------------------| G|-2---2--4--5/9~9~9~---------0--2--4/7~7~7~--------------------------------| D|-2-------------7-7--------------------5-5----------3--5--7/10~10~--10-9---| A|-0----------------------5----------------------3---------------8----8-8---| E|------------------------3----------------------1--------------------------| e|--------------------------------------------------------| B|--------------------------------------------------------| G|--------------------------------------------------------| D|---------5---------7~----------------8---------7~-------| A|-0-0-0-0-3-0-0-0-0-5~--------0-0-0-0-6-0-0-0-0-5~-------| E|--------------------------------------------------------| ******* ******* ******* ******* e|--------------------------------------------------------------------------| B|--------------------------------------------------------------------------| G|-2---2--4--5/9~9~75/9~----0--2--4/7~754/5~----------------------------| D|-2-------------7----------------------5------------3--5--7/10~10~~-10-9~--| A|-0----------------------5----------------------3---------------8----------| E|------------------------3----------------------1--------------------------| e|--------------------------------------------------------------------------| B|--------------------------------------------------------------------------| G|--5-----------------------------------------------------------------------| D|--x--9--7--7h9p7~--6~----------10---10--------------12---12--------------| A|--5-----7------------------------8----8--------------10---10--------------| E|--------------------------------------------------------------------------| (&) ese acorde es un D7
       D7       
, el Tano lo toca asi: D
        D        
|--10-- pero es mucho mas jodido y suena igual.  A
        A        
|--5--- e|--------------------------------------------------------| B|--------------------------------------------------------| G|--------------------------------------------------------| D|---------5---------7~----------------8---------7~-------| A|-0-0-0-0-3-0-0-0-0-5~--------0-0-0-0-6-0-0-0-0-5~-------| E|--------------------------------------------------------| ******* ******* ******* ******* Ahora se viene E
        E        
L solo. No es imposible, pero requiere de mucha practica. Recomiendo practicarlo despacio y despues ir aumentando la velocidad, tratando de mantener siempre una 'limpieza' en lo que se toca. Bueno ahy les ba. Solo: e|-----------------------------------------------------------12-------------| B|-/5b6r5b6r5b6//9~~-9-10-12-9-10-12-13-10-12-13-15-12-13-15----13-15-12-13-| G|--------------------------------------------------------------------------| D|--------------------------------------------------------------------------| A|--------------------------------------------------------------------------| E|--------------------------------------------------------------------------| e|--------------------------------/12~---------------12b13~~~-| B|--------------------------------------12-10p9---------------| G|--10-13-9-10p9----9~~-------------------------10~-----------| D|---------------12-------------------------------------------| A|------------------------------------------------------------| E|------------------------------------------------------------| e|--/15-13-12-10------------------------------------------------------------| B|---------------13-12-10---------------------------------------------------| G|------------------------13-10-9---------------------------------14-16-17--| D|--------------------------------12-10-9----------------12-14-15-----------| A|----------------------------------------12-11-12-14-15--------------------| E|--------------------------------------------------------------------------| e|----------17-19-20-17-22b24~~~--19--21b22~--19--20b21~~~r--| B|-15-17-18--------------------------------------------------| G|-----------------------------------------------------------| D|-----------------------------------------------------------| A|-----------------------------------------------------------| E|-----------------------------------------------------------| (a este cachito le pone un delay mas largo y presente) e|---20-18-17------------------------------------| B|-------------20-19-17-------17-19b21-19b21~~~--| G|----------------------19-17--------------------| D|-----------------------------------------------| A|-----------------------------------------------| E|-----------------------------------------------| Esta parte es bastante jodida, ba TODO
       DO       
 LIGADO, sin pua. Para que te salga limpio recomiendo tapar la 1° y la 3° con los dedos o dedo y pua de la mano derecha. e|--------------------------------------------------------------------------| B|--15-0-13-0-12-0-13-0-15-0-13-0-12-0-10-0-12-0-10-0-9-0-10-0-12-0-10-0-12-| G|--------------------------------------------------------------------------| D|--------------------------------------------------------------------------| A|--------------------------------------------------------------------------| E|--------------------------------------------------------------------------| e|--------------------------------------------| B|-0-13-0-15-0-13-0-15-0-17-18p17p15h17~~~~---|Fin solo. G|--------------------------------------------| D|--------------------------------------------| A|--------------------------------------------| E|--------------------------------------------| e|----------------------------------|----------------------------------| B|----------------------------------|----------------------------------| G|-14-----12----11----9-------------|----------------------------------| D|-14-----12----11----9-------------|--7----11----7-----9~-------------| A|-12-----10----9-----7-------------|--5----9-----5-----7~-------------| E|----------------------------------|----------------------------------| e|----------------------------------|----------------------------------| B|----------------------------------|----------------------------------| G|/14-----12----11----9-------------|----------------------------------| D|/14-----12----11----9-------------|--7----11----7-----5~-------------| A|/12-----10----9-----7-------------|--5----9-----5-----3~-------------| E|----------------------------------|----------------------------------| e|------------------------------------------------------------------------| B|------------------------------------------------------------------------| G|------------------------------------------------------------------------| D|--2-----------5------------7------/14-14-14-14-14-(0)-14-14-14-14-14----|x2 A|--2-----------5------------5------/12-12-12-12-12-(0)-12-12-12-12-12----| E|--0-----------3---------------------------------------------------------| e|------------------------------------------------------------------------| B|------------------------------------------------------------------------| G|------------------------------------------------------------------------| D|--2-----------5------------7--------------7-----------------------------| A|--2-----------5------------5--------------7-----------------------------| E|--0-----------3---------------------------5-----------------------------| e|----------------------------------------------------------------------| B|----------------------------------------------------------------------| G|----------------------------------------------------------------------| D|--5-----------7-------------------------------------------------------| A|--3-----------5--------------2-2-2-2-2-2-2-2-2-2-2-2------------------| E|-----------------------------0-0-0-0-0-0-0-0-0-0-0-0------------------| *********************** e|------------------------------------|------------------------------------| B|------------------------------------|------------------------------------| G|---9p8------9p8---------------------|---9p8------9p8---------------------| D|-------9-8~-----9-7-7~--------------|-------9-8~-----9-7-7~--------------| A|---------------------------10---9~--|---------------------------10---9~--| E|------------------------------------|------------------------------------| | | | e|------------------------------------|------------------------------------| B|------------------------------------|------------------------------------| G|------------------------------------|------------------------------------| D|---9-9------9-9------------5----4---|---9-9------9-9------------5----3---| A|---7-7------7-7------------3----2---|---7-7------7-7------------3----1---| E|------------------------------------|------------------------------------| (esto x4, pero en la segunda con 'semi-armonico' como antes) Termina con un E
        E        
5. Bueno señoras y señores, esta es mi tab del tema. En realidad casi todo el tiempo hay dos violas o mas, no las saque, pero si alguien quiere las tab que me diga y si tengo tiempo se lo mando. Salvo esto, creo que esta bastante bien, si alguien tiene alguna duda, sugerencia, critica o felicitacion, pueden escribir a: cobani_2003.ar. Saludos. ¡¡¡¡AGUANTE
        E        
 ALMAFUERTE!!!! ... y que se mueran los cumbieros del orto que no saven lo que es la musica.

 A
        A        
lmafuerte

Este fichero es trabajo propio de su transcriptor y representa su interpretación personal de la canción. El material contenido en esta página es para exclusivo uso privado, por lo que se prohibe su reproducción o retransmisión, así como su uso para fines comerciales.