Allá en Tilcara (TAB) (2)


INTRO
e-|---------7--------------------------0-|
B-|----8-10---10-8-10--8-7-1-----------0-|
G-|-9----------------------2-----------0-|
D-|-9--9-7--9--7-9--7------2-2-----0h2-2-|
A-|-7-----------------10-9-0---0h2-----2-|
E-|------------------------0-----------0-|


e-|---------7-10----7---------------0-|
B-|----8-10------10---8-------------0-|
G-|-9-------------------------------0-|
D-|-9--9-7--9-12--7-9-----2-----0h2-2-|
A-|-7-----------------10----0h2-----2-|
E-|---------------------------------0-|

e-|---------7--------------------------0-|
B-|----8-10---10-8-10--8-7-1-----------0-|
G-|-9----------------------2-----------0-|
D-|-9--9-7--9--7-9--7------2-2-----0h2-2-|
A-|-7-----------------10-9-0---0h2-----2-|
E-|------------------------0-----------0-|


e-|---------7-10----7---------------0-|
B-|----8-10------10---8-------------0-|
G-|-9-------------------------------0-|
D-|-9--9-7--9-12--7-9-----2-----0h2-2-|
A-|-7-----------------10----0h2-----2-|
E-|---------------------------------0-|



este tema va para el augusto y el capre!



el mecha de la gente...

 A
        A        
lmafuerte

Este fichero es trabajo propio de su transcriptor y representa su interpretación personal de la canción. El material contenido en esta página es para exclusivo uso privado, por lo que se prohibe su reproducción o retransmisión, así como su uso para fines comerciales.