Aguante bonavena (BAJ) (2)


Intro: 
G|-------------------------------| 
D|-------------------------------| 
A|---------------------------0-3-| <- x4 
E|-0-2-2-0-2-2-3-0-2-2-0-2-2-----| 
 
'Yo y mis pares estamos aca...' 
G|-------------------------| 
D|-------------------------| 
A|-----0-----2-4-----0-----| <- x2 
E|-2-2---2-2-----2-2---2-0-| 
 
'Soy metalero por propia eleccion...' 
G|---------------------------------------------------| 
D|---------------------------------------------------| 
A|---------------------------------------------------| <- x2 
E|-2-2-2-2-222-2-2-2-2-2-2-222-5-2-2-2-2-2-222-5-2-5-| 
 
'Vamos muchachos una vez mas...' 
G|---------------------------------| 
D|---------------------------------| 
A|---------------------------------| <- x4 
E|-5-5-5-5-5-5-5-5-5-5-5-5-3-3-5-3-| 
 
'Y esa señora de la television' 
G|-------------------------| 
D|-------------------------| 
A|-----0-----2-4-----0-----| <- x2 
E|-2-2---2-2-----2-2---2-0-| 
 
'Soy metalero por propia eleccion...' 
G|---------------------------------------------------| 
D|---------------------------------------------------| 
A|---------------------------------------------------| <- x2 
E|-2-2-2-2-222-2-2-2-2-2-2-222-5-2-2-2-2-2-222-5-2-5-| 
 
'A
        A        
 ver muchachos una vez mas...' G|---------------------------------| D|---------------------------------| A|---------------------------------| <- x4 E|-5-5-5-5-5-5-5-5-5-5-5-5-3-3-5-3-| 'Aguante B
        B        
onavena' G|-----------------------------------| D|-------9---------------------------| A|-7---7---------7-------5-------2---| <- x2 E|---------6---6---5---5---3---3---0-| Durante el solo: G|-----------------| D|-----------------| A|-----------------| <- x4 y despues: LA
       LA       
 - SOL
       SOL       
  E|-0-0-3-0-0-6-5-3-| MI
       MI       
 - FA
       FA       
 - SOL
       SOL       
  'Vamos muchachos una vez mas...' G|---------------------------------| D|---------------------------------| A|---------------------------------| <- x4 E|-5-5-5-5-5-5-5-5-5-5-5-5-3-3-5-3-| 'Aguante B
        B        
onavena' G|-----------------------------------| D|-------9---------------------------| A|-7---7---------7-------5-------2---| <- x3 E|---------6---6---5---5---3---3---0-|

 A
        A        
lmafuerte

Este fichero es trabajo propio de su transcriptor y representa su interpretación personal de la canción. El material contenido en esta página es para exclusivo uso privado, por lo que se prohibe su reproducción o retransmisión, así como su uso para fines comerciales.