1999 (BAJ) (2)


     gelcapo 1999


                                   A
        A        
LMAFUERTE
        E        
  Bajo  E
        E        
 E
        E        
 E
        E        
 E
        E        
 E
        E        
 E
        E        
 E
        E        
 E
        E        
G||--------------------------| D||--------------------------| A||--------------------------| E||--8--7--6--5--7--6--5--4--|  E
        E        
 E
        E        
 E
        E        
 E
        E        
 E
        E        
 E
        E        
 E
        E        
 E
        E        
--------------------------| --------------------------| --------------------------| --6--5--4--3--5--4--3--2--| W  E
        E        
 E
        E        
 E
        E        
 E
        E        
 E
        E        
Q. -------------------|------------------------| -------------------|------------------------| --0----------------|--3-----5-----5--3------| -------------------|------------------------| H H --------------------| --------------------| --3--------3--------| --------------------|  E
        E        
. S E
        E        
 E
        E        
 E
        E        
Q. ------------------------| ------------------------| --3---------------------| --------1-----1--0------|  E
        E        
 E
        E        
 E
        E        
 E
        E        
 E
        E        
 E
        E        
 E
        E        
 E
        E        
--------------------------| --------------------------| --------------------------| --5--5--5--5--5--5--5--5--|  E
        E        
 E
        E        
 E
        E        
 E
        E        
 E
        E        
 E
        E        
 E
        E        
 E
        E        
--------------------------| --------------------------| --------------------------| --5--5--5--5--5--5--5--5--|  E
        E        
 E
        E        
 E
        E        
 E
        E        
 E
        E        
 E
        E        
 E
        E        
 E
        E        
--------------------------| --------------------------| --3--3--3--3--3--3--3--3--| --------------------------|  E
        E        
 E
        E        
 E
        E        
 E
        E        
 E
        E        
Q. ------------------------| --------3--3--3--2------| --3--3------------------| ------------------------|  E
        E        
 E
        E        
 E
        E        
 E
        E        
 E
        E        
 E
        E        
 E
        E        
 E
        E        
--------------------------| --------------------------| --------------------------| --3--3--3--3--3--3--3--3--|  E
        E        
 E
        E        
 E
        E        
 E
        E        
 E
        E        
 E
        E        
 E
        E        
 E
        E        
--------------------------| --------------------------| --5--5--5--5--5--5--5--5--| --------------------------| S S S S Q S S S S Q ----------------------------| ----------7------------7----| --0-0-0-0------0-0-0-0------| ----------------------------| S S S S Q H ------------------------| ----------7-------------| --0-0-0-0------0--------| ------------------------|  E
        E        
 E
        E        
 E
        E        
 E
        E        
 E
        E        
 E
        E        
 E
        E        
 E
        E        
--------------------------| --------------------------| --3--3--3--3--3--3--3--3--| --------------------------|  E
        E        
 E
        E        
 E
        E        
 E
        E        
 E
        E        
 E
        E        
 E
        E        
 E
        E        
--------------------------| --------------------------| --5--5--5--5--5--5--5--5--| --------------------------|  E
        E        
 E
        E        
 E
        E        
 E
        E        
 E
        E        
 E
        E        
 E
        E        
 E
        E        
--------------------------| --------------------------| --0--0--0--0--0--0--0--0--| --------------------------|  E
        E        
 E
        E        
 E
        E        
 E
        E        
 E
        E        
 E
        E        
 E
        E        
 E
        E        
--------------------------| --------------------------| --0--0--0--0--5--3--2--1--| --------------------------| W  E
        E        
 E
        E        
 E
        E        
 E
        E        
 E
        E        
Q. -------------------|------------------------| -------------------|------------------------| --0----------------|--3-----5-----5--3------| -------------------|------------------------| H H --------------------| --------------------| --3--------3--------| --------------------|  E
        E        
. S E
        E        
 E
        E        
 E
        E        
Q. ------------------------| ------------------------| --3---------------------| --------1-----1--0------|  E
        E        
 E
        E        
 E
        E        
 E
        E        
 E
        E        
 E
        E        
 E
        E        
 E
        E        
--------------------------| --------------------------| --------------------------| --5--5--5--5--5--5--5--5--|  E
        E        
 E
        E        
 E
        E        
 E
        E        
 E
        E        
 E
        E        
 E
        E        
 E
        E        
--------------------------| --------------------------| --------------------------| --5--5--5--5--5--5--5--5--|  E
        E        
 E
        E        
 E
        E        
 E
        E        
 E
        E        
 E
        E        
 E
        E        
 E
        E        
--------------------------| --------------------------| --3--3--3--3--3--3--3--3--| --------------------------|  E
        E        
 E
        E        
 E
        E        
 E
        E        
 E
        E        
Q. ------------------------| --------3--3--3--2------| --3--3------------------| ------------------------|  E
        E        
 E
        E        
 E
        E        
 E
        E        
 E
        E        
 E
        E        
 E
        E        
 E
        E        
--------------------------| --------------------------| --------------------------| --3--3--3--3--3--3--3--3--|  E
        E        
 E
        E        
 E
        E        
 E
        E        
 E
        E        
 E
        E        
 E
        E        
 E
        E        
--------------------------| --------------------------| --5--5--5--5--5--5--5--5--| --------------------------| S S S S Q S S S S Q ----------------------------| ----------7------------7----| --0-0-0-0------0-0-0-0------| ----------------------------| S S S S Q H ------------------------| ----------7-------------| --0-0-0-0------0--------| ------------------------|  E
        E        
 E
        E        
 E
        E        
 E
        E        
 E
        E        
 E
        E        
 E
        E        
 E
        E        
--------------------------| --------------------------| --3--3--3--3--3--3--3--3--| --------------------------|  E
        E        
 E
        E        
 E
        E        
 E
        E        
 E
        E        
 E
        E        
 E
        E        
 E
        E        
--------------------------| --------------------------| --5--5--5--5--5--5--5--5--| --------------------------|  E
        E        
 E
        E        
 E
        E        
 E
        E        
 E
        E        
 E
        E        
 E
        E        
 E
        E        
--------------------------| --------------------------| --0--0--0--0--0--0--0--0--| --------------------------|  E
        E        
 E
        E        
 E
        E        
 E
        E        
 E
        E        
 E
        E        
 E
        E        
 E
        E        
--------------------------| --------------5--4--2-----| --L--0--2--5-----------5--| --------------------------|  E
        E        
 E
        E        
 E
        E        
 E
        E        
 E
        E        
 E
        E        
 E
        E        
 E
        E        
--------------------------| --------------------------| --7--7--7--7--7--7--7--7--| --------------------------|  E
        E        
 E
        E        
 E
        E        
 E
        E        
 E
        E        
 E
        E        
 E
        E        
 E
        E        
--------------------------| --------------------------| --7--7--7--7--7--7--7--7--| --------------------------|  E
        E        
 E
        E        
 E
        E        
 E
        E        
 E
        E        
 E
        E        
 E
        E        
 E
        E        
--------------------------| --------------------------| --5--5--5--5--5--5--5--5--| --------------------------|  E
        E        
 E
        E        
 E
        E        
 E
        E        
 E
        E        
 E
        E        
 E
        E        
 E
        E        
--------------------------| --------------------------| --5--5--5--5--5--0--2--3--| --------------------------|  E
        E        
 E
        E        
 E
        E        
 E
        E        
 E
        E        
 E
        E        
 E
        E        
 E
        E        
--------------------------| --------------------------| --3--3--3--3--3--3--3--3--| --------------------------|  E
        E        
 E
        E        
 E
        E        
 E
        E        
 E
        E        
 E
        E        
 E
        E        
 E
        E        
--------------------------| --------------------------| --2--2--2--2--2--2--2--2--| --------------------------|  E
        E        
 E
        E        
 E
        E        
 E
        E        
 E
        E        
 E
        E        
 E
        E        
 E
        E        
--------------------------| --------------------------| --------------------------| --5--5--5--5--5--5--5--5--| H  E
        E        
 E
        E        
 E
        E        
 E
        E        
------------------------| ------------------------| --12--------------------| ------------5--4--3--2--|  E
        E        
 E
        E        
 E
        E        
 E
        E        
 E
        E        
 E
        E        
 E
        E        
 E
        E        
--------------------------| --------------------------| --------------------------| --2--2--2--2--2--2--2--2--|  E
        E        
 E
        E        
 E
        E        
 E
        E        
 E
        E        
 E
        E        
 E
        E        
 E
        E        
--------------------------| --------------------------| --------------------------| --2--2--2--2--2--2--2--2--|  E
        E        
 E
        E        
 E
        E        
 E
        E        
 E
        E        
 E
        E        
 E
        E        
 E
        E        
--------------------------| --------------------------| --0--0--0--0--0--0--0--0--| --------------------------|  E
        E        
 E
        E        
 E
        E        
 E
        E        
 E
        E        
 E
        E        
 E
        E        
 E
        E        
--------------------------| --------------------------| --0--0--0--0--0--0--0--0--| --------------------------|  E
        E        
 E
        E        
 E
        E        
 E
        E        
 E
        E        
 E
        E        
 E
        E        
 E
        E        
--------------------------| --------------------------| --------------------------| --2--2--2--2--2--2--2--2--|  E
        E        
 E
        E        
 E
        E        
 E
        E        
 E
        E        
 E
        E        
 E
        E        
 E
        E        
--------------------------| --------------------------| --------------3--2--0-----| --2--2--2--2-----------2--|  E
        E        
 E
        E        
 E
        E        
 E
        E        
 E
        E        
 E
        E        
 E
        E        
 E
        E        
--------------------------| --------------------------| --0--0--0--0--0--0--0--0--| --------------------------|  E
        E        
 E
        E        
 E
        E        
 E
        E        
 E
        E        
 E
        E        
 E
        E        
 E
        E        
--------------------------| --------------------------| --0--0--0--0--0--0--0--0--| --------------------------|  E
        E        
 E
        E        
 E
        E        
 E
        E        
 E
        E        
 E
        E        
 E
        E        
 E
        E        
--------------------------| --------------------------| --7--7--7--7--7--7--7--7--| --------------------------|  E
        E        
 E
        E        
 E
        E        
 E
        E        
 E
        E        
 E
        E        
 E
        E        
 E
        E        
--------------------------| --------------------------| --7--7--7--7--7--7--7--7--| --------------------------|  E
        E        
 E
        E        
 E
        E        
 E
        E        
 E
        E        
 E
        E        
 E
        E        
 E
        E        
--------------------------| --------------------------| --5--5--5--5--5--5--5--5--| --------------------------|  E
        E        
 E
        E        
 E
        E        
 E
        E        
 E
        E        
 E
        E        
 E
        E        
 E
        E        
--------------------------| --------------------------| --5--5--5--5--5--0--2--3--| --------------------------|  E
        E        
 E
        E        
 E
        E        
 E
        E        
 E
        E        
 E
        E        
 E
        E        
 E
        E        
--------------------------| --------------------------| --3--3--3--3--3--3--3--3--| --------------------------|  E
        E        
 E
        E        
 E
        E        
 E
        E        
 E
        E        
 E
        E        
 E
        E        
 E
        E        
--------------------------| --------------------------| --2--2--2--2--2--2--2--2--| --------------------------|  E
        E        
 E
        E        
 E
        E        
 E
        E        
 E
        E        
 E
        E        
 E
        E        
 E
        E        
--------------------------| --------------------------| --------------------------| --5--5--5--5--5--5--5--5--|  E
        E        
 E
        E        
 E
        E        
 E
        E        
 E
        E        
 E
        E        
 E
        E        
 E
        E        
--------------------------| --------------------------| --0--0--0--0--0--0--------| --------------------2--2--|  E
        E        
 E
        E        
 E
        E        
 E
        E        
 E
        E        
 E
        E        
 E
        E        
 E
        E        
--------------------------| --------------------------| --------------------------| --2--2--2--2--2--2--2--2--|  E
        E        
 E
        E        
 E
        E        
 E
        E        
 E
        E        
 E
        E        
 E
        E        
 E
        E        
--------------------------| --------------------------| --------------------------| --2--2--2--2--2--2--2--2--|  E
        E        
 E
        E        
 E
        E        
 E
        E        
 E
        E        
 E
        E        
 E
        E        
 E
        E        
--------------------------| --------------------------| --0--0--0--0--0--0--0--0--| --------------------------|  E
        E        
 E
        E        
 E
        E        
 E
        E        
 E
        E        
 E
        E        
 E
        E        
 E
        E        
--------------------------| --------------------------| --0--0--0--0--0--0--0--0--| --------------------------|  E
        E        
 E
        E        
 E
        E        
 E
        E        
 E
        E        
 E
        E        
 E
        E        
 E
        E        
--------------------------| --------------------------| --------------------------| --2--2--2--2--2--2--2--2--|  E
        E        
 E
        E        
 E
        E        
 E
        E        
 E
        E        
 E
        E        
 E
        E        
 E
        E        
--------------------------| --------------------------| --------------3--2--0-----| --2--2--2--2-----------2--|  E
        E        
 E
        E        
 E
        E        
 E
        E        
 E
        E        
 E
        E        
 E
        E        
 E
        E        
--------------------------| --------------------------| --0--0--0--0--0--0--0--0--| --------------------------|  E
        E        
 E
        E        
 E
        E        
 E
        E        
 E
        E        
 E
        E        
 E
        E        
 E
        E        
--------------------------| --------------------------| --0--0--0--0--0--0--0--0--| --------------------------|  E
        E        
 E
        E        
 E
        E        
 E
        E        
 E
        E        
 E
        E        
 E
        E        
 E
        E        
--------------------------| --------------------------| --7--7--7--7--7--7--7--7--| --------------------------|  E
        E        
 E
        E        
 E
        E        
 E
        E        
 E
        E        
 E
        E        
 E
        E        
 E
        E        
--------------------------| --------------------------| --7--7--7--7--7--7--7--7--| --------------------------|  E
        E        
 E
        E        
 E
        E        
 E
        E        
 E
        E        
 E
        E        
 E
        E        
 E
        E        
--------------------------| --------------------------| --5--5--5--5--5--5--5--5--| --------------------------|  E
        E        
 E
        E        
 E
        E        
 E
        E        
 E
        E        
 E
        E        
 E
        E        
 E
        E        
--------------------------| --------------------------| --5--5--5--5--5--0--2--3--| --------------------------| S S S S S S S S S S S S S S S S ----------------------------------| ----------------------------------| --3-3-3-3-3-3-3-3-3-3-3-3-3-3-3-3-| ----------------------------------| S S S S S S S S S S S S S S S S ----------------------------------| ----------------------------------| --2-2-2-2-2-2-2-2-2-2-2-2-2-2-2-2-| ----------------------------------| S S S S S S S S S S S S S S S S ----------------------------------| ----------------------------------| --0-0-0-0-4-0-0-0-5-0-0-0-7-0-0-0-| ----------------------------------| H  E
        E        
 E
        E        
 E
        E        
 E
        E        
------------------------| ------------------------| --12--------------------| ------------5--4--3--2--|  E
        E        
 E
        E        
 E
        E        
 E
        E        
 E
        E        
 E
        E        
 E
        E        
 E
        E        
--------------------------| --------------------------| --------------------------| --2--2--2--2--2--2--2--2--|  E
        E        
 E
        E        
 E
        E        
 E
        E        
 E
        E        
 E
        E        
 E
        E        
 E
        E        
--------------------------| --------------------------| --------------------------| --2--2--2--2--2--2--2--2--|  E
        E        
 E
        E        
 E
        E        
 E
        E        
 E
        E        
 E
        E        
 E
        E        
 E
        E        
--------------------------| --------------------------| --0--0--0--0--0--0--0--0--| --------------------------|  E
        E        
 E
        E        
 E
        E        
 E
        E        
 E
        E        
 E
        E        
 E
        E        
 E
        E        
--------------------------| --------------------------| --0--0--0--0--0--0--0--0--| --------------------------|  E
        E        
 E
        E        
 E
        E        
 E
        E        
 E
        E        
 E
        E        
 E
        E        
 E
        E        
--------------------------| --------------------------| --------------------------| --2--2--2--2--2--2--2--2--|  E
        E        
 E
        E        
 E
        E        
 E
        E        
 E
        E        
 E
        E        
 E
        E        
 E
        E        
--------------------------| --------------------------| --------------3--2--0-----| --2--2--2--2-----------2--|  E
        E        
 E
        E        
 E
        E        
 E
        E        
 E
        E        
 E
        E        
 E
        E        
 E
        E        
--------------------------| --------------------------| --0--0--0--0--0--0--0--0--| --------------------------|  E
        E        
 E
        E        
 E
        E        
 E
        E        
 E
        E        
 E
        E        
 E
        E        
 E
        E        
--------------------------| --------------5--4--2-----| --L--0--2--5-----------5--| --------------------------|  E
        E        
 E
        E        
 E
        E        
 E
        E        
 E
        E        
 E
        E        
 E
        E        
 E
        E        
--------------------------| --------------------------| --7--7--7--7--7--7--7--7--| --------------------------|  E
        E        
 E
        E        
 E
        E        
 E
        E        
 E
        E        
 E
        E        
 E
        E        
 E
        E        
--------------------------| --------------------------| --7--7--7--7--7--7--7--7--| --------------------------|  E
        E        
 E
        E        
 E
        E        
 E
        E        
 E
        E        
 E
        E        
 E
        E        
 E
        E        
--------------------------| --------------------------| --5--5--5--5--5--5--5--5--| --------------------------|  E
        E        
 E
        E        
 E
        E        
 E
        E        
 E
        E        
 E
        E        
 E
        E        
 E
        E        
--------------------------| --------------------------| --5--5--5--5--5--0--2--3--| --------------------------|  E
        E        
 E
        E        
 E
        E        
 E
        E        
 E
        E        
 E
        E        
 E
        E        
 E
        E        
--------------------------| --------------------------| --3--3--3--3--3--3--3--3--| --------------------------|  E
        E        
 E
        E        
 E
        E        
 E
        E        
 E
        E        
 E
        E        
 E
        E        
 E
        E        
--------------------------| --------------------------| --2--2--2--2--2--2--2--2--| --------------------------|  E
        E        
 E
        E        
 E
        E        
 E
        E        
 E
        E        
 E
        E        
 E
        E        
 E
        E        
--------------------------| --------------------------| --------------------------| --5--5--5--5--5--5--5--5--|  E
        E        
 E
        E        
 E
        E        
 E
        E        
 E
        E        
 E
        E        
 E
        E        
 E
        E        
--------------------------| --------------------------| --0--0--0--0--0--0--0--0--| --------------------------|  E
        E        
 E
        E        
 E
        E        
 E
        E        
 E
        E        
 E
        E        
 E
        E        
 E
        E        
--------------------------| --------------------------| --7--7--7--7--7--7--7--7--| --------------------------|  E
        E        
 E
        E        
 E
        E        
 E
        E        
 E
        E        
 E
        E        
 E
        E        
 E
        E        
--------------------------| --------------------------| --7--7--7--7--7--7--7--7--| --------------------------|  E
        E        
 E
        E        
 E
        E        
 E
        E        
 E
        E        
 E
        E        
 E
        E        
 E
        E        
--------------------------| --------------------------| --5--5--5--5--5--5--5--5--| --------------------------|  E
        E        
 E
        E        
 E
        E        
 E
        E        
 E
        E        
 E
        E        
 E
        E        
 E
        E        
--------------------------| --------------------------| --5--5--5--5--5--0--2--3--| --------------------------|  E
        E        
 E
        E        
 E
        E        
 E
        E        
 E
        E        
 E
        E        
 E
        E        
 E
        E        
--------------------------| --------------------------| --3--3--3--3--3--3--3--3--| --------------------------|  E
        E        
 E
        E        
 E
        E        
 E
        E        
 E
        E        
 E
        E        
 E
        E        
 E
        E        
--------------------------| --------------------------| --2--2--2--2--2--2--2--2--| --------------------------|  E
        E        
 E
        E        
 E
        E        
 E
        E        
 E
        E        
 E
        E        
 E
        E        
 E
        E        
--------------------------| --------------------------| --------------------------| --5--5--5--5--5--5--5--5--|  E
        E        
 E
        E        
 E
        E        
 E
        E        
 E
        E        
 E
        E        
 E
        E        
 E
        E        
--------------------------| --------------------------| -----------------0--2--3--| --5--5--5--5--5-----------|  E
        E        
 E
        E        
 E
        E        
 E
        E        
 E
        E        
 E
        E        
 E
        E        
 E
        E        
--------------------------| --------------------------| --3--3--3--3--3--3--3--3--| --------------------------|  E
        E        
 E
        E        
 E
        E        
 E
        E        
 E
        E        
 E
        E        
 E
        E        
 E
        E        
--------------------------| --------------------------| --2--2--2--2--2--2--2--2--| --------------------------|  E
        E        
 E
        E        
 E
        E        
 E
        E        
 E
        E        
 E
        E        
 E
        E        
 E
        E        
--------------------------| --------------------------| --------------------------| --5--5--5--5--5--5--5--5--|  E
        E        
 E
        E        
 E
        E        
 E
        E        
 E
        E        
 E
        E        
 E
        E        
 E
        E        
--------------------------| --------------------------| --------------------------| --5--5--5--5--5--5--5--5--|  E
        E        
 E
        E        
 E
        E        
 E
        E        
 E
        E        
 E
        E        
 E
        E        
 E
        E        
--------------------------| --------------------------| --3--3--3--3--3--3--3--3--| --------------------------|  E
        E        
 E
        E        
 E
        E        
 E
        E        
 E
        E        
 E
        E        
 E
        E        
 E
        E        
--------------------------| --------------------------| --2--2--2--2--2--2--2--2--| --------------------------|  E
        E        
 E
        E        
 E
        E        
 E
        E        
 E
        E        
 E
        E        
 E
        E        
 E
        E        
--------------------------| --------------------------| --------------------------| --5--5--5--5--5--5--5--5--|  E
        E        
 E
        E        
 E
        E        
 E
        E        
 E
        E        
 E
        E        
 E
        E        
 E
        E        
--------------------------| --------------------------| -----------------0--2--3--| --5--5--5--5--5-----------| H Q Q Q H. ---------------------|--------------------| ---------------------|--------------------| --L--------3----2----|--0-----------------| ---------------------|-------3------------| Q Q H W ---------------------|-------------------| ---------------------|-------------------| -------0----2--------|--0----------------| --3------------------|-------------------| Q Q Q Q W ----------------------|-------------------|| ----------------------|-------------------|| --L----L----L----L----|--L----------------|| ----------------------|-------------------|| Duration Legend --------------- W - whole H - half Q - quarter E
        E        
 - 8th S - 16th T - 32nd X - 64th . - note dotted |-n-| - n-tuplets Tablature Legend ---------------- L - tied note x - dead note g - grace note (n) - ghost note > - accentuded note NH - natural harmonic AH - artificial harmonic TH - tapped harmonic SH - semi harmonic PH - pitch harmonic h - hammer on p - pull off b - bend br - bendRelease pb - preBend pbr - preBendRelease brb - bendReleaseBend n/ - tremolo bar dip n - tremolo bar dive -/n - tremolo bar Release up /n - tremolo bar inverted dip /n - tremolo bar return -n - tremolo bar Release down S - shift slide s - legato slide / - slide into from below or out of upwards - slide into from above or out of downwards ~ - vibrato W - wide vibrato tr - trill TP - tremolo picking T - tapping S - slap P - pop < - fade in ^ - brush up v - brush down

 A
        A        
lmafuerte

Este fichero es trabajo propio de su transcriptor y representa su interpretación personal de la canción. El material contenido en esta página es para exclusivo uso privado, por lo que se prohibe su reproducción o retransmisión, así como su uso para fines comerciales.