Ya no te amo (BAJ) (3)


Eei qe roio ps stee es el primer tab i pss ahhaha sta rola sta bn al
Pedoo i ps antes la abia busqado pro no la encontré i ps ia la saqamos
Qon la banda ii ps havenn rules ¡! Haha ps les dejo mi msn si tienen
Dudas o sugerencias (pepedbz95) i qe el rock no mueraa,,,




(Intro)x2
G|--------------------------------------------|
D|--------------------------------------------|
A|—6-666-xx-----------------------------------|
E|-----------66------8-888-xx—44--------------|

(verso)x2
G|-----------------------------------------------------|
D|-----------------------------------------------------|
A|---66666666------------------------------------------|
E|------------66666666-88888888-44444444---------------|

Los tiempos stan algoo aproximadoos ,,

G|------------------------------------------------|
D|------------------------------------------------|
A|---6-66-66--------------------------------------|
E|-----------6-66-66-8-88-88-4-44-44--------------|


G|-----------------------------------------------------|
D|-----------------------------------------------------|
A|---66666666------------------------------------------|
E|------------66666666-88888888-44444444---------------|

(pre-coro)
G|-----------------------------------------------------------|
D|-----------------------------------------------------------|
A|-----------------------------------------------------------|
E|-8888888888888888-666666666666666-444444444444444-666666666|

(coro)x2
G|-------------------------------------------------------------------|
D|-------------------------------------------------------------------|
A|-6-66-66---------------------------6-66-66-------------------------|
E|-----------6-66-66-8-88-88-4-44-44----------6-66-66-8888888-4444444|

Después sige sto qon la lira
e|-------------------------------|
B|-------------------------------|
G|-------------------------------|
D|-------------------------------|
A|-6-5-6-5-6-5-6-5-6-5-6-5-6/8-6-|
E|-------------------------------|

I empieza otra vez lo mismo, solo que aqi cambia poqo

G|-----------------------------------------------------|
D|-----------------------------------------------------|
A|---66666666------------------------------------------|
E|------------66666666-88888888-4-4-4-4----------------|

G|-----------------------------------------------------|
D|-----------------------------------------------------|
A|---66666666------------------------------------------|
E|------------66666666-88888888-44444444---------------|



G|------------------------------------------------|
D|------------------------------------------------|
A|---6-66-66--------------------------------------|
E|-----------6-66-66-8-88-88-4-44-44--------------|


G|-----------------------------------------------------|
D|-----------------------------------------------------|
A|---66666666------------------------------------------|
E|------------66666666-88888888-44444444---------------|

(pre-coro)
G|-----------------------------------------------------------|
D|-----------------------------------------------------------|
A|-----------------------------------------------------------|
E|-8888888888888888-666666666666666-444444444444444-666666666|

(coro)x2
G|-------------------------------------------------------------------|
D|-------------------------------------------------------------------|
A|-6-66-66---------------------------6-66-66-------------------------|
E|-----------6-66-66-8-88-88-4-44-44----------6-66-66-8888888-4444444|

Después entra la liraa qon stoo , i son 4 vueltas.
e|-------------------------------|
B|-------------------------------|
G|-------------------------------|
D|-------------------------------|
A|-6-5-6-5-6-5-6-5-6-5-6-5-6/8-6-|
E|-------------------------------|
tu entras en la segunda vuelta qon sto..
G|-------------------------------|
D|-------------------------------|
A|-6-5-6-5-6-5-6-5-6-5-6-5-6/8-6-|
E|-------------------------------|x3

G|----------------------------|
D|----------------------------|
A|-66-x7----------------------|
E|-------66-x7--88-x7--44-x7--|

G|-----------------------------------------|
D|-----------------------------------------|
A|-----------------------------------------|
E|-8-8-8-8-8-8-8-8-8-8/9-9-9-9-9-9-9-9-9---|

G|--------------------------------------------------------------------
D|--------------------------------------------------------------------
A|--------------------------------------------------------------------
E|-11-11-11-11-11-11-11-11-11-11/13-13-11-11-13-13-11-11-9-9-7-7-8~10~

CORO x2



I el outro es stee..
G|------------------------------------------------------------------|
D|------------------------------------------------------------------|
A|-6-66-66-----------------------6-66-66------------6~~-------------|
E|--------6-66-66-8-88-88-4-44-44-------6-66-66-8~4~--6~~-8-8-8-4~6~|

|--------|
|--------|
|----6~~-|
|-666----|

Bnoo pss ia sta la orla paraa qe la saqen qon su bandaa
Haha ii pss schidaa ,,,, HAVEN RULES

 A
        A        
llison

Este fichero es trabajo propio de su transcriptor y representa su interpretación personal de la canción. El material contenido en esta página es para exclusivo uso privado, por lo que se prohibe su reproducción o retransmisión, así como su uso para fines comerciales.