Olvidaste decir adiós (BAJ) (4)


Si necesitas una tab en especial escríbeme...

http://www.myspace.com/alejandrolauyola


G||-------|-------|-------|-------|-------|-------|-------|-------|
D||-------|-------|-------|-------|-------|-------|-------|-------|
A||-------|-------|-------|-------|-------|-------|-------|-------|
D||-------|-------|-------|-------|-------|-------|-------|-------|


          E
        E        
 E
        E        
 E
        E        
 E
        E        
 E
        E        
 E
        E        
 E
        E        
 E
        E        
 E
        E        
 E
        E        
 E
        E        
 E
        E        
 E
        E        
 E
        E        
 E
        E        
 E
        E        
-------|--------------------------|--------------------------| -------|--------------------------|--------------------------| -------|--1--1--1--1--1--1--1--1--|--1--1--1--1--1--1--1--1--| -------|--------------------------|--------------------------|  E
        E        
 E
        E        
 E
        E        
 E
        E        
 E
        E        
 E
        E        
 E
        E        
 E
        E        
 E
        E        
 E
        E        
 E
        E        
 E
        E        
 E
        E        
 E
        E        
 E
        E        
 E
        E        
--------------------------|--------------------------| --------------------------|--------------------------| --1--1--1--1--1--1--1--1--|--1--1--1--1--1--1--1--1--| --------------------------|--------------------------|  E
        E        
 E
        E        
 E
        E        
 E
        E        
 E
        E        
 E
        E        
 E
        E        
 E
        E        
 E
        E        
 E
        E        
 E
        E        
 E
        E        
 E
        E        
 E
        E        
 E
        E        
 E
        E        
--------------------------|--------------------------| --------------------------|--------------------------| --------------------------|--------------------------| --5--5--5--5--5--5--5--5--|--5--5--5--5--5--5--5--5--|  E
        E        
 E
        E        
 E
        E        
 E
        E        
 E
        E        
 E
        E        
 E
        E        
 E
        E        
 E
        E        
 E
        E        
 E
        E        
 E
        E        
 E
        E        
 E
        E        
 E
        E        
 E
        E        
--------------------------|--------------------------| --------------------------|--------------------------| --------------------------|--------------------------| --5--5--5--5--5--5--5--5--|--5--5--5--5--5--5--5--5--|  E
        E        
 E
        E        
 E
        E        
 E
        E        
 E
        E        
 E
        E        
 E
        E        
 E
        E        
 E
        E        
 E
        E        
 E
        E        
 E
        E        
 E
        E        
 E
        E        
 E
        E        
 E
        E        
--------------------------|--------------------------| --------------------------|--------------------------| --------------------------|--------------------------| --1--1--1--1--1--1--1--1--|--1--1--1--1--1--1--1--1--|  E
        E        
 E
        E        
 E
        E        
 E
        E        
 E
        E        
 E
        E        
 E
        E        
 E
        E        
 E
        E        
 E
        E        
 E
        E        
 E
        E        
 E
        E        
 E
        E        
 E
        E        
 E
        E        
--------------------------|--------------------------| --------------------------|--------------------------| --------------------------|--------------------------| --1--1--1--1--1--1--1--1--|--1--1--1--1--1--1--1--1--|  E
        E        
 E
        E        
 E
        E        
 E
        E        
 E
        E        
 E
        E        
 E
        E        
 E
        E        
 E
        E        
 E
        E        
 E
        E        
 E
        E        
 E
        E        
 E
        E        
 E
        E        
 E
        E        
--------------------------|--------------------------| --------------------------|--------------------------| --------------------------|--------------------------| --3--3--3--3--3--3--3--3--|--3--3--3--3--3--3--3--3--|  E
        E        
 E
        E        
 E
        E        
 E
        E        
 E
        E        
 E
        E        
 E
        E        
 E
        E        
 E
        E        
 E
        E        
 E
        E        
 E
        E        
 E
        E        
 E
        E        
 E
        E        
 E
        E        
--------------------------|--------------------------| --------------------------|--------------------------| --------------------------|--------------------------| --3--3--3--3--3--3--3--3--|--3--3--3--3--3--3--3--3--|  E
        E        
 E
        E        
 E
        E        
 E
        E        
 E
        E        
 E
        E        
 E
        E        
 E
        E        
 E
        E        
 E
        E        
 E
        E        
 E
        E        
 E
        E        
 E
        E        
 E
        E        
 E
        E        
--------------------------|--------------------------| --------------------------|--------------------------| --1--1--1--1--1--1--1--1--|--1--1--1--1--1--1--1--1--| --------------------------|--------------------------|  E
        E        
 E
        E        
 E
        E        
 E
        E        
 E
        E        
 E
        E        
 E
        E        
 E
        E        
 E
        E        
 E
        E        
 E
        E        
 E
        E        
 E
        E        
 E
        E        
 E
        E        
 E
        E        
--------------------------|--------------------------| --------------------------|--------------------------| --1--1--1--1--1--1--1--1--|--1--1--1--1--1--1--1--1--| --------------------------|--------------------------|  E
        E        
 E
        E        
 E
        E        
 E
        E        
 E
        E        
 E
        E        
 E
        E        
 E
        E        
 E
        E        
 E
        E        
 E
        E        
 E
        E        
 E
        E        
 E
        E        
 E
        E        
 E
        E        
--------------------------|--------------------------| --------------------------|--------------------------| --------------------------|--------------------------| --5--5--5--5--5--5--5--5--|--5--5--5--5--5--5--5--5--|  E
        E        
 E
        E        
 E
        E        
 E
        E        
 E
        E        
 E
        E        
 E
        E        
 E
        E        
 E
        E        
 E
        E        
 E
        E        
 E
        E        
 E
        E        
 E
        E        
 E
        E        
 E
        E        
--------------------------|--------------------------| --------------------------|--------------------------| --------------------------|--------------------------| --5--5--5--5--5--5--5--5--|--5--5--5--5--5--5--5--5--|  E
        E        
 E
        E        
 E
        E        
 E
        E        
 E
        E        
 E
        E        
 E
        E        
 E
        E        
 E
        E        
 E
        E        
 E
        E        
 E
        E        
 E
        E        
 E
        E        
 E
        E        
 E
        E        
--------------------------|--------------------------| --------------------------|--------------------------| --------------------------|--------------------------| --1--1--1--1--1--1--1--1--|--1--1--1--1--1--1--1--1--|  E
        E        
 E
        E        
 E
        E        
 E
        E        
 E
        E        
 E
        E        
 E
        E        
 E
        E        
 E
        E        
 E
        E        
 E
        E        
 E
        E        
 E
        E        
 E
        E        
 E
        E        
 E
        E        
--------------------------|--------------------------| --------------------------|--------------------------| --------------------------|--------------------------| --1--1--1--1--1--1--1--1--|--1--1--1--1--1--1--1--1--|  E
        E        
 E
        E        
 E
        E        
 E
        E        
 E
        E        
 E
        E        
 E
        E        
 E
        E        
 E
        E        
 E
        E        
 E
        E        
 E
        E        
 E
        E        
 E
        E        
 E
        E        
 E
        E        
--------------------------|--------------------------| --------------------------|--------------------------| --------------------------|--------------------------| --3--3--3--3--3--3--3--3--|--3--3--3--3--3--3--3--3--|  E
        E        
 E
        E        
 E
        E        
 E
        E        
 E
        E        
 E
        E        
 E
        E        
 E
        E        
 E
        E        
 E
        E        
 E
        E        
 E
        E        
 E
        E        
 E
        E        
 E
        E        
 E
        E        
--------------------------|--------------------------| --------------------------|--------------------------| --------------------------|--------------------------| --3--3--3--3--3--3--3--3--|--3--3--3--3--3--3--3--3--|  E
        E        
 E
        E        
 E
        E        
 E
        E        
 E
        E        
 E
        E        
 E
        E        
 E
        E        
 E
        E        
 E
        E        
 E
        E        
 E
        E        
 E
        E        
 E
        E        
 E
        E        
 E
        E        
--------------------------|--------------------------| --------------------------|--------------------------| --1--1--1--1--1--1--1--1--|--1--1--1--1--1--1--1--1--| --------------------------|--------------------------|  E
        E        
 E
        E        
 E
        E        
 E
        E        
 E
        E        
 E
        E        
 E
        E        
 E
        E        
 E
        E        
 E
        E        
 E
        E        
 E
        E        
 E
        E        
 E
        E        
 E
        E        
 E
        E        
--------------------------|--------------------------| --------------------------|--------------------------| --1--1--1--1--1--1--1--1--|--1--1--1--1--1--1--1--1--| --------------------------|--------------------------|  E
        E        
 E
        E        
 E
        E        
 E
        E        
 E
        E        
 E
        E        
 E
        E        
 E
        E        
 E
        E        
 E
        E        
 E
        E        
 E
        E        
 E
        E        
 E
        E        
 E
        E        
 E
        E        
--------------------------|--------------------------| --------------------------|--------------------------| --------------------------|--------------------------| --5--5--5--5--5--5--5--5--|--5--5--5--5--5--5--5--5--|  E
        E        
 E
        E        
 E
        E        
 E
        E        
 E
        E        
 E
        E        
 E
        E        
 E
        E        
 E
        E        
 E
        E        
 E
        E        
 E
        E        
 E
        E        
 E
        E        
 E
        E        
 E
        E        
--------------------------|--------------------------| --------------------------|--------------------------| --------------------------|--------------------------| --5--5--5--5--5--5--5--5--|--5--5--5--5--5--5--5--5--| Q Q Q Q Q Q Q Q Q Q Q Q ----------------------|----------------------|----------------------| ----------------------|----------------------|----------------------| ----------------------|----------------------|----------------------| --1----1----1----1----|--1----1----1----1----|--1----1----1----1----| Q Q Q Q Q Q Q Q ----------------------|----------------------| ----------------------|----------------------| ----------------------|----------------------| --1----1----1----1----|--3----3----3----3----|  E
        E        
 E
        E        
 E
        E        
 E
        E        
 E
        E        
 E
        E        
 E
        E        
 E
        E        
 E
        E        
 E
        E        
 E
        E        
 E
        E        
 E
        E        
 E
        E        
 E
        E        
 E
        E        
--------------------------|--------------------------| --------------------------|--------------------------| --------------------------|--------------------------| --3--3--3--3--3--3--3--3--|--3--3--3--3--3--3--3--3--|  E
        E        
 E
        E        
 E
        E        
 E
        E        
 E
        E        
 E
        E        
 E
        E        
 E
        E        
 E
        E        
 E
        E        
 E
        E        
 E
        E        
 E
        E        
 E
        E        
 E
        E        
 E
        E        
--------------------------|--------------------------| --------------------------|--------------------------| --------------------------|--1--1--1--1--1--1--1--1--| --3--3--3--3--3--3--3--3--|--------------------------|  E
        E        
 E
        E        
 E
        E        
 E
        E        
 E
        E        
 E
        E        
 E
        E        
 E
        E        
 E
        E        
 E
        E        
 E
        E        
 E
        E        
 E
        E        
 E
        E        
 E
        E        
 E
        E        
--------------------------|--------------------------| --------------------------|--------------------------| --1--1--1--1--1--1--1--1--|--1--1--1--1--1--1--1--1--| --------------------------|--------------------------|  E
        E        
 E
        E        
 E
        E        
 E
        E        
 E
        E        
 E
        E        
 E
        E        
 E
        E        
 E
        E        
 E
        E        
 E
        E        
 E
        E        
 E
        E        
 E
        E        
 E
        E        
 E
        E        
--------------------------|--------------------------| --------------------------|--------------------------| --1--1--1--1--1--1--1--1--|--------------------------| --------------------------|--5--5--5--5--5--5--5--5--|  E
        E        
 E
        E        
 E
        E        
 E
        E        
 E
        E        
 E
        E        
 E
        E        
 E
        E        
 E
        E        
 E
        E        
 E
        E        
 E
        E        
 E
        E        
 E
        E        
 E
        E        
 E
        E        
--------------------------|--------------------------| --------------------------|--------------------------| --------------------------|--------------------------| --5--5--5--5--5--5--5--5--|--5--5--5--5--5--5--5--5--|  E
        E        
 E
        E        
 E
        E        
 E
        E        
 E
        E        
 E
        E        
 E
        E        
 E
        E        
 E
        E        
 E
        E        
 E
        E        
 E
        E        
 E
        E        
 E
        E        
 E
        E        
 E
        E        
--------------------------|--------------------------| --------------------------|--------------------------| --------------------------|--------------------------| --5--5--5--5--5--5--5--5--|--1--1--1--1--1--1--1--1--|  E
        E        
 E
        E        
 E
        E        
 E
        E        
 E
        E        
 E
        E        
 E
        E        
 E
        E        
 E
        E        
 E
        E        
 E
        E        
 E
        E        
 E
        E        
 E
        E        
 E
        E        
 E
        E        
--------------------------|--------------------------| --------------------------|--------------------------| --------------------------|--------------------------| --1--1--1--1--1--1--1--1--|--1--1--1--1--1--1--1--1--|  E
        E        
 E
        E        
 E
        E        
 E
        E        
 E
        E        
 E
        E        
 E
        E        
 E
        E        
 E
        E        
 E
        E        
 E
        E        
 E
        E        
 E
        E        
 E
        E        
 E
        E        
 E
        E        
--------------------------|--------------------------| --------------------------|--------------------------| --------------------------|--------------------------| --1--1--1--1--1--1--1--1--|--3--3--3--3--3--3--3--3--|  E
        E        
 E
        E        
 E
        E        
 E
        E        
 E
        E        
 E
        E        
 E
        E        
 E
        E        
 E
        E        
 E
        E        
 E
        E        
 E
        E        
 E
        E        
 E
        E        
 E
        E        
 E
        E        
--------------------------|--------------------------| --------------------------|--------------------------| --------------------------|--------------------------| --3--3--3--3--3--3--3--3--|--3--3--3--3--3--3--3--3--|  E
        E        
 E
        E        
 E
        E        
 E
        E        
 E
        E        
 E
        E        
 E
        E        
 E
        E        
 E
        E        
 E
        E        
 E
        E        
 E
        E        
 E
        E        
 E
        E        
 E
        E        
 E
        E        
--------------------------|--------------------------| --------------------------|--------------------------| --------------------------|--1--1--1--1--1--1--1--1--| --3--3--3--3--3--3--3--3--|--------------------------|  E
        E        
 E
        E        
 E
        E        
 E
        E        
 E
        E        
 E
        E        
 E
        E        
 E
        E        
 E
        E        
 E
        E        
 E
        E        
 E
        E        
 E
        E        
 E
        E        
 E
        E        
 E
        E        
--------------------------|--------------------------| --------------------------|--------------------------| --1--1--1--1--1--1--1--1--|--1--1--1--1--1--1--1--1--| --------------------------|--------------------------|  E
        E        
 E
        E        
 E
        E        
 E
        E        
 E
        E        
 E
        E        
 E
        E        
 E
        E        
 E
        E        
 E
        E        
 E
        E        
 E
        E        
 E
        E        
 E
        E        
 E
        E        
 E
        E        
--------------------------|--------------------------| --------------------------|--------------------------| --1--1--1--1--1--1--1--1--|--------------------------| --------------------------|--5--5--5--5--5--5--5--5--|  E
        E        
 E
        E        
 E
        E        
 E
        E        
 E
        E        
 E
        E        
 E
        E        
 E
        E        
 E
        E        
 E
        E        
 E
        E        
 E
        E        
 E
        E        
 E
        E        
 E
        E        
 E
        E        
--------------------------|--------------------------| --------------------------|--------------------------| --------------------------|--------------------------| --5--5--5--5--5--5--5--5--|--5--5--5--5--5--5--5--5--|  E
        E        
 E
        E        
 E
        E        
 E
        E        
 E
        E        
 E
        E        
 E
        E        
 E
        E        
 E
        E        
 E
        E        
 E
        E        
 E
        E        
 E
        E        
 E
        E        
 E
        E        
 E
        E        
--------------------------|--------------------------| --------------------------|--------------------------| --------------------------|--------------------------| --5--5--5--5--5--5--5--5--|--1--1--1--1--1--1--1--1--|  E
        E        
 E
        E        
 E
        E        
 E
        E        
 E
        E        
 E
        E        
 E
        E        
 E
        E        
 E
        E        
 E
        E        
 E
        E        
 E
        E        
 E
        E        
 E
        E        
 E
        E        
 E
        E        
--------------------------|--------------------------| --------------------------|--------------------------| --------------------------|--------------------------| --1--1--1--1--1--1--1--1--|--1--1--1--1--1--1--1--1--|  E
        E        
 E
        E        
 E
        E        
 E
        E        
 E
        E        
 E
        E        
 E
        E        
 E
        E        
 E
        E        
 E
        E        
 E
        E        
 E
        E        
 E
        E        
 E
        E        
 E
        E        
 E
        E        
--------------------------|--------------------------| --------------------------|--------------------------| --------------------------|--------------------------| --1--1--1--1--1--1--1--1--|--3--3--3--3--3--3--3--3--|  E
        E        
 E
        E        
 E
        E        
 E
        E        
 E
        E        
 E
        E        
 E
        E        
 E
        E        
 E
        E        
 E
        E        
 E
        E        
 E
        E        
 E
        E        
 E
        E        
 E
        E        
 E
        E        
--------------------------|--------------------------| --------------------------|--------------------------| --------------------------|--------------------------| --3--3--3--3--3--3--3--3--|--3--3--3--3--3--3--3--3--|  E
        E        
 E
        E        
 E
        E        
 E
        E        
 E
        E        
 E
        E        
 E
        E        
 E
        E        
 E
        E        
 E
        E        
 E
        E        
 E
        E        
 E
        E        
 E
        E        
 E
        E        
 E
        E        
--------------------------|--------------------------| --------------------------|--------------------------| --------------------------|--------------------------| --3--3--3--3--3--3--3--3--|--5--5--5-----5--5--5-----|  E
        E        
 E
        E        
 E
        E        
 E
        E        
 E
        E        
 E
        E        
 E
        E        
 E
        E        
 E
        E        
 E
        E        
 E
        E        
 E
        E        
 E
        E        
 E
        E        
 E
        E        
 E
        E        
--------------------------|--------------------------| --------------------------|--------------------------| --------------------------|--------------------------| --5--5--5-----5--5--5-----|--5--5--5-----5--5--5-----|  E
        E        
 E
        E        
 E
        E        
 E
        E        
 E
        E        
 E
        E        
 E
        E        
 E
        E        
 E
        E        
 E
        E        
 E
        E        
 E
        E        
 E
        E        
 E
        E        
 E
        E        
 E
        E        
--------------------------|--------------------------| --------------------------|--------------------------| --------------------------|--------------------------| --5--5--5-----5--5--5-----|--1--1--1-----1--1--1-----|  E
        E        
 E
        E        
 E
        E        
 E
        E        
 E
        E        
 E
        E        
 E
        E        
 E
        E        
 E
        E        
 E
        E        
 E
        E        
 E
        E        
 E
        E        
 E
        E        
 E
        E        
 E
        E        
--------------------------|--------------------------| --------------------------|--------------------------| --------------------------|--------------------------| --1--1--1-----1--1--1-----|--1--1--1-----1--1--1-----|  E
        E        
 E
        E        
 E
        E        
 E
        E        
 E
        E        
 E
        E        
 E
        E        
 E
        E        
--------------------------|-----|-----|-----|-----|-----|-----|-----| --------------------------|-----|-----|-----|-----|-----|-----|-----| --------------------------|-----|-----|-----|-----|-----|-----|-----| --1--1--1-----1--1--1-----|-----|-----|-----|-----|-----|-----|-----| -----|-----|-----|-----|-----|-----|-----|-----|-----|-----|-----| -----|-----|-----|-----|-----|-----|-----|-----|-----|-----|-----| -----|-----|-----|-----|-----|-----|-----|-----|-----|-----|-----| -----|-----|-----|-----|-----|-----|-----|-----|-----|-----|-----|  E
        E        
 E
        E        
 E
        E        
 E
        E        
 E
        E        
 E
        E        
 E
        E        
 E
        E        
 E
        E        
 E
        E        
 E
        E        
 E
        E        
 E
        E        
 E
        E        
 E
        E        
 E
        E        
--------------------------|--------------------------| --------------------------|--------------------------| --1--1--1--1--1--1--1--1--|--1--1--1--1--1--1--1--1--| --------------------------|--------------------------|  E
        E        
 E
        E        
 E
        E        
 E
        E        
 E
        E        
 E
        E        
 E
        E        
 E
        E        
 E
        E        
 E
        E        
 E
        E        
 E
        E        
 E
        E        
 E
        E        
 E
        E        
 E
        E        
--------------------------|--------------------------| --------------------------|--------------------------| --1--1--1--1--1--1--1--1--|--1--1--1--1--1--1--1--1--| --------------------------|--------------------------|  E
        E        
 E
        E        
 E
        E        
 E
        E        
 E
        E        
 E
        E        
 E
        E        
 E
        E        
 E
        E        
 E
        E        
 E
        E        
 E
        E        
 E
        E        
 E
        E        
 E
        E        
 E
        E        
--------------------------|--------------------------| --------------------------|--------------------------| --------------------------|--------------------------| --5--5--5--5--5--5--5--5--|--5--5--5--5--5--5--5--5--|  E
        E        
 E
        E        
 E
        E        
 E
        E        
 E
        E        
 E
        E        
 E
        E        
 E
        E        
 E
        E        
 E
        E        
 E
        E        
 E
        E        
 E
        E        
 E
        E        
 E
        E        
 E
        E        
--------------------------|--------------------------| --------------------------|--------------------------| --------------------------|--------------------------| --5--5--5--5--5--5--5--5--|--5--5--5--5--5--5--5--5--|  E
        E        
 E
        E        
 E
        E        
 E
        E        
 E
        E        
 E
        E        
 E
        E        
 E
        E        
 E
        E        
 E
        E        
 E
        E        
 E
        E        
 E
        E        
 E
        E        
 E
        E        
 E
        E        
--------------------------|--------------------------| --------------------------|--------------------------| --------------------------|--------------------------| --1--1--1--1--1--1--1--1--|--1--1--1--1--1--1--1--1--|  E
        E        
 E
        E        
 E
        E        
 E
        E        
 E
        E        
 E
        E        
 E
        E        
 E
        E        
 E
        E        
 E
        E        
 E
        E        
 E
        E        
 E
        E        
 E
        E        
 E
        E        
 E
        E        
--------------------------|--------------------------| --------------------------|--------------------------| --------------------------|--------------------------| --1--1--1--1--1--1--1--1--|--1--1--1--1--1--1--1--1--|  E
        E        
 E
        E        
 E
        E        
 E
        E        
 E
        E        
 E
        E        
 E
        E        
 E
        E        
 E
        E        
 E
        E        
 E
        E        
 E
        E        
 E
        E        
 E
        E        
 E
        E        
 E
        E        
--------------------------|--------------------------| --------------------------|--------------------------| --------------------------|--------------------------| --3--3--3--3--3--3--3--3--|--3--3--3--3--3--3--3--3--|  E
        E        
 E
        E        
 E
        E        
 E
        E        
 E
        E        
 E
        E        
 E
        E        
 E
        E        
 E
        E        
 E
        E        
 E
        E        
 E
        E        
 E
        E        
 E
        E        
 E
        E        
 E
        E        
--------------------------|--------------------------| --------------------------|--------------------------| --------------------------|--------------------------| --3--3--3--3--3--3--3--3--|--3--3--3--3--3--3--3--3--|  E
        E        
 E
        E        
 E
        E        
 E
        E        
 E
        E        
 E
        E        
 E
        E        
 E
        E        
 E
        E        
 E
        E        
 E
        E        
 E
        E        
 E
        E        
 E
        E        
 E
        E        
 E
        E        
--------------------------|--------------------------| --------------------------|--------------------------| --1--1--1--1--1--1--1--1--|--1--1--1--1--1--1--1--1--| --------------------------|--------------------------|  E
        E        
 E
        E        
 E
        E        
 E
        E        
 E
        E        
 E
        E        
 E
        E        
 E
        E        
 E
        E        
 E
        E        
 E
        E        
 E
        E        
 E
        E        
 E
        E        
 E
        E        
 E
        E        
--------------------------|--------------------------| --------------------------|--------------------------| --1--1--1--1--1--1--1--1--|--1--1--1--1--1--1--1--1--| --------------------------|--------------------------|  E
        E        
 E
        E        
 E
        E        
 E
        E        
 E
        E        
 E
        E        
 E
        E        
 E
        E        
 E
        E        
 E
        E        
 E
        E        
 E
        E        
 E
        E        
 E
        E        
 E
        E        
 E
        E        
--------------------------|--------------------------| --------------------------|--------------------------| --------------------------|--------------------------| --5--5--5--5--5--5--5--5--|--5--5--5--5--5--5--5--5--|  E
        E        
 E
        E        
 E
        E        
 E
        E        
 E
        E        
 E
        E        
 E
        E        
 E
        E        
 E
        E        
 E
        E        
 E
        E        
 E
        E        
 E
        E        
 E
        E        
 E
        E        
 E
        E        
--------------------------|--------------------------| --------------------------|--------------------------| --------------------------|--------------------------| --5--5--5--5--5--5--5--5--|--5--5--5--5--5--5--5--5--|  E
        E        
 E
        E        
 E
        E        
 E
        E        
 E
        E        
 E
        E        
 E
        E        
 E
        E        
 E
        E        
 E
        E        
 E
        E        
 E
        E        
 E
        E        
 E
        E        
 E
        E        
 E
        E        
--------------------------|--------------------------| --------------------------|--------------------------| --------------------------|--------------------------| --1--1--1--1--1--1--1--1--|--1--1--1--1--1--1--1--1--|  E
        E        
 E
        E        
 E
        E        
 E
        E        
 E
        E        
 E
        E        
 E
        E        
 E
        E        
 E
        E        
 E
        E        
 E
        E        
 E
        E        
 E
        E        
 E
        E        
 E
        E        
 E
        E        
--------------------------|--------------------------| --------------------------|--------------------------| --------------------------|--------------------------| --1--1--1--1--1--1--1--1--|--1--1--1--1--1--1--1--1--|  E
        E        
 E
        E        
 E
        E        
 E
        E        
 E
        E        
 E
        E        
 E
        E        
 E
        E        
 E
        E        
 E
        E        
 E
        E        
 E
        E        
 E
        E        
 E
        E        
 E
        E        
 E
        E        
--------------------------|--------------------------| --------------------------|--------------------------| --------------------------|--------------------------| --3--3--3--3--3--3--3--3--|--3--3--3--3--3--3--3--3--|  E
        E        
 E
        E        
 E
        E        
 E
        E        
 E
        E        
 E
        E        
 E
        E        
 E
        E        
 E
        E        
 E
        E        
 E
        E        
 E
        E        
 E
        E        
 E
        E        
 E
        E        
 E
        E        
--------------------------|--------------------------| --------------------------|--------------------------| --------------------------|--------------------------| --3--3--3--3--3--3--3--3--|--3--3--3--3--3--3--3--3--| W -------------------|-----|-----|-----|-----|-----|-----|-----|| -------------------|-----|-----|-----|-----|-----|-----|-----|| --1----------------|-----|-----|-----|-----|-----|-----|-----|| -------------------|-----|-----|-----|-----|-----|-----|-----|| Si necesitas una tab en especial escríbeme... http://www.myspace.com/alejandrolauyola Duration Legend --------------- W - whole H - half Q - quarter E
        E        
 - 8th S - 16th T - 32nd X - 64th . - note dotted |-n-| - n-tuplets Tablature Legend ---------------- L - tied note x - dead note g - grace note (n) - ghost note > - accentuded note NH - natural harmonic AH - artificial harmonic TH - tapped harmonic SH - semi harmonic PH - pitch harmonic h - hammer on p - pull off b - bend br - bendRelease pb - preBend pbr - preBendRelease brb - bendReleaseBend n/ - tremolo bar dip n - tremolo bar dive -/n - tremolo bar Release up /n - tremolo bar inverted dip /n - tremolo bar return -n - tremolo bar Release down S - shift slide s - legato slide / - slide into from below or out of upwards - slide into from above or out of downwards ~ - vibrato W - wide vibrato tr - trill TP - tremolo picking T - tapping S - slap P - pop < - fade in ^ - brush up v - brush down

 A
        A        
llison

Este fichero es trabajo propio de su transcriptor y representa su interpretación personal de la canción. El material contenido en esta página es para exclusivo uso privado, por lo que se prohibe su reproducción o retransmisión, así como su uso para fines comerciales.