No más de tí (BAJ) (3)


Intro
G-------------------------
D-------------------------
A-----------2---11-----2--
E--12/2--2-4--------2-4---

Amor, como estas soy yo...
G------------------------------------------
D------------------------------------------
A------------2222222222----------2222222222
E--2222222222----------2222222222----------

No quiero saber si al final me cambiaste...
G------------------------------------------
D----------------------111111--------------
A--111111-222222---------------------------
E----------------111111-------444444-777777

Las cosas que no me dijiste...
G------------------------------------------
D------------------------------------------
A--------222222------222222------222222----
E--222222------222222------222222----------

Las cosas que nunca dijiste...
G-----------------------
D-----------------------
A--666666-222222-----4/2
E----------------2~-----

Amor, como estas soy yo...
G------------------------------------------
D------------------------------------------
A------------2222222222----------2222222222
E--2222222222----------2222222222----------

No quiero saber si al final me cambiaste...
G------------------------------------------
D----------------------111111--------------
A--111111-222222---------------------------
E----------------111111-------444444-777777

Las cosas que no me dijiste...
G------------------------------------------
D------------------------------------------
A--------222222------222222------222222----
E--222222------222222------222222----------

Las cosas que nunca dijiste...
G------------------------------------------
D------------------------------------------
A--666666-222222-------22------------------
E----------------22-44----111-333----------

G------------------------------------------
D------------------------------------------
A--------22--------------------22----------
E--22-44----111-333------22-44----111-333--

G---------------------------
D---------------------------
A--------22--11-11-11-11-11-
E--22-44--------------------

Las cosas que no me dijiste...(x3)
G------------------------------------------
D------------------------------------------
A--------222222------222222------222222----
E--222222------222222------222222----------

Las cosas que nunca dijiste...(x3)
G----------------
D----------------
A--666666-222222-
E----------------

 A
        A        
llison

Este fichero es trabajo propio de su transcriptor y representa su interpretación personal de la canción. El material contenido en esta página es para exclusivo uso privado, por lo que se prohibe su reproducción o retransmisión, así como su uso para fines comerciales.