Mario Bross 3 (BAJ) (2)


bueno esta es mi segunda tab  espero que les guste
voten porfavor!!
saludos a la banda

Intro
G|------------------------------------------------
D|------------------------------------------------
A|---------------------444444/6-4-----------------x2
E|----44444444-1111111----------------------------

  Verso
G|-----------------------------------------
D|-----------------------------------------
A|---------------------------------------
E|-4444444444444444444-1111111111111111--
   Hoy es un buen día para irme a la escuela,

G|-----------------------------------------------------
D|-----------------------------------------------------
A|---44444444444444444444444444444-6666666666666666666-
E|-----------------------------------------------------
     sentarme junto a Nancy y enseñarle mi lonchera nueva

G|------------------------------------------------
D|------------------------------------------------
A|------------------------------------------------
E|-444444444444444444444444444-111111111111111111-
   Ya van varias veces que nos dice la maestra

G|----------------------------------------------
D|----------------------------------------------
A|-----4444444444444444444444-66666666666666666-
E|----------------------------------------------
   que no nos agarremos nada debajo de la mesa.

G|----------------------------------------------
D|----------------------------------------------
A|----4-4-4-4-4-4-6-6-6-6-6-6-------------------
E|----------------------------4444444-1111111---
   Ya viene el verano y no podré escuchar

G|----------------------------------------------
D|----------------------------------------------
A|--4-4-4-4-4-6-6-6-6-6-6-6---------------------
E|---------------------------44444-1111111------
      a Nancy cantando el himno nacional

G|----------------------------------------------
D|----------------------------------------------
A|---4444444444-6666666666666-33333------44444--
E|----------------------------------1111--------
  tendré que esperar el nuevo ciclo escolar


G|----------------------------------------------
D|----------------------------------------------
A|-------4444444444-----------------------------
E|--------------------4444----------------------
   Para probar su mazapán

Intro
G|------------------------------------------------
D|------------------------------------------------
A|---------------------444444/6-4-----------------x2
E|----44444444-1111111----------------------------

G|-----------------------------------------------
D|-----------------------------------------------
A|-----------------------------------------------
E|---44444444444444444444444444-1111111111111111—
  Su padre es el gerente de una gran juguetería

G|------------------------------------------------
D|------------------------------------------------
A|----44444444444444444444444-6666666666666666666-
E|------------------------------------------------
    siempre le dá dinero y deja decir groserías

G|------------------------------------------------
D|------------------------------------------------
A|------------------------------------------------
E|---4444444444444444444444444-111111111111111111-
  Mi padre es un taxista que trabaja todo el día


G|----------------------------------------------
D|----------------------------------------------
A|---444444444444444444444444-66666666666666666-
E|----------------------------------------------
  se robo esta lonchera de una banca en galerías.

G|----------------------------------------------
D|----------------------------------------------
A|-4-4-4-4-4-6-6-6-6-6-6------------------------
E|------------------------44444-1111111---------
   G
        G        
racias a él he podido descubrir G|---------------------------------------------- D|---------------------------------------------- A|--4-4-4-4-6-6-6-6----------------------------- E|-------------------44444-1111111-------------- el significado de reproducir G|----------------------------------------------- D|----------------------------------------------- A|--4444444-66666666666666-33333------------44444 E|----------------------------------1111111------  A
        A        
ella le gustan las B
        B        
arbies y a mí el futbol G|---------------------------------------------- D|---------------------------------------------- A|--------444444444----------------------------- E|------------------44444----------------------- pero al doctor es lo mejor G|----------------------------------------------- D|----------------------------------------------- A|------------444444444-------------------------- E|--------------------------------44444444------- Y cuando será, septiembre otra vez G|----------------------------------------------- D|----------------------------------------------- A|------------4444444---------------------------- E|--------------------44444444------------------- para que me diga la Nancy G|----------------------------------------------- D|----------------------------------------------- A|--4444444---6666666666------------------------- E|-----------------------4----------------------- juguemos al Mario B
        B        
ros 3. eso es todo si quieren una rola en especial ai ta mi mail

 A
        A        
llison

Este fichero es trabajo propio de su transcriptor y representa su interpretación personal de la canción. El material contenido en esta página es para exclusivo uso privado, por lo que se prohibe su reproducción o retransmisión, así como su uso para fines comerciales.