Frágil (BAJ) (4)


Intro  ( x3 )
----------11---------------------11--------------------
-12-12-12------12-12-12-------------12-12-12-----------
------------------------12-12-12--------------10-10-10-
-------------------------------------------------------

12--------------------14-------------------------------
---12-12-12----------------12-14-11--------------------
------------12-12-12-----------------------------------
-------------------------------------------------------

(al final de la tercera vez)
-------------------------------------------------------
-------------------------------------------------------
-------------------------------------------------------
-7----7-5----12/0--------------------------------------

(aqui entra la guitarra)
-------------------------------------------------------
-------------------------------------------------------
--5-(x8)-----------------------------------------------
----------5-(x8)--3-(x8)--7-(x4)--5(x4)----------------

-------------------------------------------------------
-------------------------------------------------------
--5-(x8)-----------------------------------------------
----------5-(x8)--3-(x8)--7---7-5----------------------

 Primer verso (x2)
-------------------------------------------------------
-------------------------------------------------------
--5-(x8)----------7-7-7-7-7-7-7-9-10-------------------
----------5-(x8)---------------------3-3-3-3-2-2-2-2---

-------------------------------------------------------
-------------------------------------------------------
-------------------------------------------------------
--3---3-3-3-5---5-5-5----------------------------------

 C
        C        
ORO (x2) ------------------------------------------------------- ------------------------------------------------------- --5-(x8)----------------------------------------------- ----------5-(x8)--3-(x8)--7-(x4)--5(x4)----------------  A
        A        
qui no hay voz (x2) ------------------------------------------------------- ------------------------------------------------------- --5-(x8)----------------------------------------------- ----------5-(x8)--3-(x8)--7-(x4)--5(x4)---------------- Segundo Verso (x2) ------------------------------------------------------- ------------------------------------------------------- --5-(x8)----------7-7-7-7-7-7-7-9-10------------------- ----------5-(x8)---------------------3-3-3-3-2-2-2-2--- ------------------------------------------------------- ------------------------------------------------------- ------------------------------------------------------- --3---3-3-3-5---5-5-5----------------------------------  C
        C        
ORO (x2) ------------------------------------------------------- ------------------------------------------------------- --5-(x8)----------------------------------------------- ----------5-(x8)--3-(x8)--7-(x4)--5(x4)----------------  B
        B        
ridge (x2) (es igual que el intro) ----------11---------------------11-------------------- -12-12-12------12-12-12-------------12-12-12----------- ------------------------12-12-12--------------10-10-10- ------------------------------------------------------- 12--------------------14------------------------------- ---12-12-12----------------12-14-11-------------------- ------------12-12-12----------------------------------- ------------------------------------------------------- ------------------------------------------------------- ------------------------------------------------------- ---5--------------------------------------------------- ---------5-----3-----7--5------------------------------  C
        C        
ORO (x3) ------------------------------------------------------- ------------------------------------------------------- --5-(x8)----------------------------------------------- ----------5-(x8)--3-(x8)--7-(x4)--5(x4)---------------- ------------------------------------------------------- ------------------------------------------------------- --5-(x8)--------------------------5-------------------- ----------5-(x8)--3-(x8)--7---5------------------------ _______________________________________________________ (Primer verso) Me como las uñas todo por tu culpa ¿Acaso no sabes que mi alma es tuya? Maldita la hora en que te vi a los ojos Te veo y yo creo que todo es un sueño uohhhhh oooh no (CORO) Dime otra vez que me quieres y que no te irás Dime otra vez que eres mía y de nadie más (Segundo Verso) Me encantan tus ojos que son como el cielo Los veo y no creo que pueda tenerlos Y estoy en el cielo y me voy al infierno Todo por tu cuerpo Maldito deseo uohhhhh oooh no (CORO) Dime otra vez que me quieres y que no te irás Dime otra vez que eres mía y de nadie más Dime otra vez que me quieres y que no te irás Dime otra vez que eres mía y de nadie más Dime otra vez que me quieres y que no te irás Dime otra vez que eres mía y de nadie más Dime otra vez que me quieres y que no te irás...

 A
        A        
llison

Este fichero es trabajo propio de su transcriptor y representa su interpretación personal de la canción. El material contenido en esta página es para exclusivo uso privado, por lo que se prohibe su reproducción o retransmisión, así como su uso para fines comerciales.