Escapar (TAB)


intro
             ...no descansare...
TAB4--6--4--6--4---6/TAB
TAB5--4--4--4--4---4/TAB
TAB6--4--2--4--2---4/TAB

descansare
4--8--4--8--6
5--8--4--8--4
6--6--2--6--4

viajando
TAB4--8--4--8--6--8--4--6---6-6-6/TAB
TAB5--6--4--8--6--6--4--6---6-6-6/TAB
TAB6--6--2--6--4--6--2--4---4-4-4/TAB

estribillo
quiero escapar
4--6--4--6--4--8--6--4
5--4--4--4--4--8--6--4
6--4--2--4--2--6--4--2

y no pensar en el mañana
primero
2-13-13-13-13-14-14-14-13-13-13-13-14-14-14-
3-13-13-13-13-13-13-13-13-13-13-13-13-13-13-
despues
2-14--14--14--14--13--13--13--16--16--16--16--14
TAB3---13--13--13--13--13--13--13--13--13--13--13-/TAB

              ...te quiero besar
TAB4--6--4--6--4---6/TAB
TAB5--4--4--4--4---4/TAB
TAB6--4--2--4--2---4/TAB

besar...
4--8--4--8--6
5--8--4--8--4
6--6--2--6--4

esperar que muera el dia
TAB4--8--4--8--6--8--4--6---6-6-6/TAB
TAB5--6--4--8--6--6--4--6---6-6-6/TAB
TAB6--6--2--6--4--6--2--4---4-4-4/TAB

quiero escapar
4--6--4--6--4--8--6--4
5--4--4--4--4--8--6--4
6--4--2--4--2--6--4--2

azul del mar
primero
2-13-13-13-13-14-14-14-13-13-13-13-14-14-14
3-13-13-13-13-13-13-13-13-13-13-13-13-13-13
despues
2-14--14--14--14--13--13--13--16--16--16--16--14
TAB3---13--13--13--13--13--13--13--13--13--13--13-/TAB


puente

TAB4--6-6--6-6--6-6---6/TAB
TAB5--4-4--4-4--4-4---4/TAB
TAB6--4-4--4-4--4-4---4/TAB

vamos
4--6--3-8--8--6
5--6--3-8--6--6
6--4--1-6--6--4

quiero escapar
4--6--4--6--4--8--6--4
5--4--4--4--4--8--6--4
6--4--2--4--2--6--4--2

azul del mar
primero
2-13-13-13-13-14-14-14-13-13-13-13-14-14-14
3-13-13-13-13-13-13-13-13-13-13-13-13-13-13
despues
2-14--14--14--14--13--13--13--16--16--16--16--14
TAB3---13--13--13--13--13--13--13--13--13--13--13-/TAB

intro
TAB4--6--4--6--4---6/TAB
TAB5--4--4--4--4---4/TAB
TAB6--4--2--4--2---4/TAB

2--13h14-14
TAB3--------13/TAB

 A
        A        
llison

Este fichero es trabajo propio de su transcriptor y representa su interpretación personal de la canción. El material contenido en esta página es para exclusivo uso privado, por lo que se prohibe su reproducción o retransmisión, así como su uso para fines comerciales.