80´s (TAB) (3)


Algo así:

E|----------13---13------------------
B|---9-11-9----9---11----------------
G|-----------------------------------
D|-----------------------------------
A|-----------------------------------
E|-----------------------------------

E|----------11---11------------------
B|---9-11-9----9---11----------------
G|-----------------------------------
D|-----------------------------------
A|-----------------------------------
E|-----------------------------------

E|----------9---8--------------------
B|---9-11-9----9---9-----------------
G|-----------------------------------
D|-----------------------------------
A|-----------------------------------
E|-----------------------------------

E|----------8------------------------
B|---9-11-9----9-11--9---------------
G|-----------------------------------
D|-----------------------------------
A|-----------------------------------
E|-----------------------------------

En la versión acustica es así:

E|----------11------------------------
B|---9-11-9----9-11--9---------------
G|-----------------------------------
D|-----------------------------------
A|-----------------------------------
E|-----------------------------------



Sta canción me gustaa burda jeje xD... E
        E        
spero les guste... Intro: G#
       G#       
 D#
       D#       
 C#
       C#       
 D#
       D#       
 (2) G#
       G#       
  D#
       D#       
  Fm
       Fm       
  No puedo seguir describiendo el amor D#
       D#       
  G#
       G#       
  que siento por ti cada que sale el sol D#
       D#       
  Fm
       Fm       
  D#
       D#       
  G#
       G#       
  un nuevo planeta que este junto a ti... ese lugar seré yo D#
       D#       
  Fm
       Fm       
  D#
       D#       
  y siento por ti un nuevo dolor, creo que esto si A#
       A#       
  A#
       A#       
 C
        C        
 C#
       C#       
  C#
       C#       
  es un verdadero amor te quiero y no pienso A#
       A#       
  A#
       A#       
 C
        C        
 C#
       C#       
  G#
       G#       
  dejar de luchar hasta que estés junto a mi G#
       G#       
  D#
       D#       
  Fm
       Fm       
  C#
       C#       
  tarde o temprano estarás a mi lado (junto a mi) G#
       G#       
  D#
       D#       
  Fm
       Fm       
  C#
       C#       
  tarde o temprano estarás a mi lado (hasta k estés junto a mi) G#
       G#       
  D#
       D#       
  Fm
       Fm       
  C#
       C#       
  tarde o temprano estarás a mi lado (junto a mi) G#
       G#       
  D#
       D#       
  Fm
       Fm       
  C#
       C#       
  Fm
       Fm       
  D#
       D#       
  tarde o temprano estarás... a mí la do De nuevo el intro: G#
       G#       
 D#
       D#       
 C#
       C#       
 D#
       D#       
  G#
       G#       
  D#
       D#       
  Fm
       Fm       
  las lagrimas no siempre son para mal D#
       D#       
  G#
       G#       
  no me importaría que me vieras llorar D#
       D#       
  Fm
       Fm       
  por que no estoy triste ni me siento mal D#
       D#       
  A#
       A#       
  A#
       A#       
 C
        C        
 C#
       C#       
  al fin te pude encontrar te quiero y no A#
       A#       
  A#
       A#       
 C
        C        
 C#
       C#       
  G#
       G#       
  puedo dejar de luchar hasta que estés junto a mi G#
       G#       
  D#
       D#       
  Fm
       Fm       
  C#
       C#       
  tarde o temprano estarás a mi lado (junto a mi) G#
       G#       
  D#
       D#       
  Fm
       Fm       
  C#
       C#       
  tarde o temprano estarás a mi lado (hasta k estés junto a mi) G#
       G#       
  D#
       D#       
  Fm
       Fm       
  C#
       C#       
  tarde o temprano estarás a mi lado (junto a mi) G#
       G#       
  D#
       D#       
  Fm
       Fm       
  C#
       C#       
  Fm
       Fm       
  D#
       D#       
  tarde o temprano estarás... a mí la do Hasta que estés junto a mi... G#
       G#       
  D#
       D#       
  Fm
       Fm       
  C#
       C#       
  tarde o temprano estarás a mi lado (junto a mi) G#
       G#       
  D#
       D#       
  Fm
       Fm       
  C#
       C#       
  tarde o temprano estarás a mi lado (hasta k estés junto a mi) G#
       G#       
  D#
       D#       
  Fm
       Fm       
  C#
       C#       
  tarde o temprano estarás a mi lado (junto a mi) G#
       G#       
  D#
       D#       
  Fm
       Fm       
  C#
       C#       
  Fm
       Fm       
  D#
       D#       
  tarde o temprano estarás... a mí la do G#
       G#       
 D#
       D#       
 C#
       C#       
 D#
       D#       
 (2) Ahí ta xD... Les dejo mi msn jibaro_50... I love you very burdaa..! M*E
        E        
 xD!

 A
        A        
llison

Este fichero es trabajo propio de su transcriptor y representa su interpretación personal de la canción. El material contenido en esta página es para exclusivo uso privado, por lo que se prohibe su reproducción o retransmisión, así como su uso para fines comerciales.