A gritos de esperanza (TAB) (6)


Me gustaría que aceptárais esta canción en el atame.org porque aunque ya esté en el archivo os 
aseguro que esta está genial. 
Las otras transcripciones del punteo de esta magnífica canción que hay en el archivo están bien, 
 pero quedan como vacías porque lo hacen en realidad dos guitarras y cuesta mucho sacarlo. 
Esta está con bajos y todo, se parece bastante a la canción, así que por favor, ponedla, porque 
aquel que sea capaz de tocarla (no es facil...) le sonará muy bien. 
Muxas gracias!! 
 
 
e|----------------------3-----------------2-------- 
b|---------------3--0-------0--1-1/3------------3-- 
g|--0--2-2/4---------------------------------2----- 
d|-------------------------------------0----------- 
a|------------------------------------------------- 
E|------------3------------------------------------ 
 
e|-0--2-2--3-----------2------------------0-0------ 
b|----------------0-----------0---3--3------------- 
g|-------------0-----------0----------------------- 
d|---------2-----------0--------------------------- 
a|-----------------------------------2----3-3------ 
E|------------------------------------------------- 
 
e|---------------------3-------------------------2--- 
b|--3/5/3-----------3---------1/3/1--0--------3------ 
g|------5--4--------4----------------2--------2------ 
d|------------5-------------------------0------------ 
a|--------------------------------------------------- 
E|--------------------------------------------------- 
 
e|----------3--2--0--------0--0-------|| 
b|----------------------3--3----------|| 
g|-0--2-2-----------------------------|| 
d|----------2--0--3---------------2---|| 
a|-------------------2--2--3--3-------|| 
E|------------------------------------|| 
 
 
Se la dedico a mi profesor de guitarra que fue el que me la 
facilitó, por ser tan buen profe y por tener tanta paciencia 
con un trasto como yo!!! G
        G        
racias Pedro!! ;) By: A
        A        
nutxa

 A
        A        
lex Ubago

Este fichero es trabajo propio de su transcriptor y representa su interpretación personal de la canción. El material contenido en esta página es para exclusivo uso privado, por lo que se prohibe su reproducción o retransmisión, así como su uso para fines comerciales.