El sonido del silencio (TAB) (3)


COMO E
        E        
STÁN SOY JHIMFAVIO LES TRAIGO UNA
        A        
 NUEVA
        A        
 TRANSCRIPCIÓN Y ESTA
        A        
 MUY C
        C        
HIDA,SE
        E        
 QUE
        E        
 PODRÁN SACARLA
       LA       
 ESTA RE
       RE       
FACILISIMO. SUENA
        A        
 IDENTICA A
        A        
L ORIGINAL. INTRO: CAPO E
        E        
E
        E        
L 3ER TRASTE. E|--------------------|--------------------|--------------------| B|-----------0--------|-----------0--------|-----------0--------| G|--------0-----0-----|--------0-----0-----|--------0-----0-----| D|-----4-----------4--|-----4-----------4--|-----4-----------4--| A|--7-----------------|--7-----------------|--7-----------------| E|--------------------|--------------------|--------------------| --------------------|--------------------|--------------------| -----------0--------|-----------0--------|-----------0--------| --------0-----0-----|--------0-----0-----|--------0-----0-----| -----4-----------4--|-----4-----------4--|-----4-----------4--| --7-----------------|--7-----------------|--7-----------------| --------------------|--------------------|--------------------| 1ra estrofa: Em
       Em       
  --------------------|--------------------|--------------------| -----------0--------|-----------0--------|-----------0--------| --------0-----0-----|--------0-----0-----|--------0-----0-----| -----4-----------4--|-----4-----------4--|-----4-----------4--| --7-----------------|--7-----------------|--7-----------------| --------------------|--------------------|--------------------| (la letra es solo para ubicarse)  E
        E        
L SONIDO
       DO       
  --------------------|--------------------|--------------------| -----------0--------|-----------0--------|-----------0--------| --------0-----0-----|--------0-----0-----|--------0-----0-----| -----4-----------4--|-----4-----------4--|-----4-----------4--| --7-----------------|--7-----------------|--7-----------------| --------------------|--------------------|--------------------|  D
        D        
EL  SI
       SI       
LENCIO  E
        E        
L QUE
        E        
  NO QUIERO  E
        E        
SCU  D
        D        
--------------------|--------------------|--------------------| -----------3--------|-----------3--------|-----------3--------| --------2-----2-----|--------2-----2-----|--------2-----2-----| -----4-----------4--|-----4-----------4--|-----4-----------4--| --5-----------------|--5-----------------|--5-----------------| --------------------|--------------------|--------------------|  C
        C        
HAR  E
        E        
S  A
        A        
QUELLA
       LA       
  NOCHE
        E        
   F
        F        
RIA
        A        
  LA
       LA       
  QUE
        E        
   C
        C        
--------------------|--------------------|--------------------| -----------3--------|-----------1--------|-----------1--------| --------2-----2-----|--------0-----0-----|--------0-----0-----| -----4-----------4--|-----2-----------2--|-----2-----------2--| --5-----------------|--3-----------------|--3-----------------| --------------------|--------------------|--------------------| QUIERO  E
        E        
VI TAR  D
        D        
E
        E        
  SENTIRME
        E        
   D
        D        
ESCUBIERTO  G
        G        
--------------------|--------------------|--------------------| -----------1--------|-----------0--------|-----------3--------| --------0-----0-----|--------0-----0-----|--------0-----0-----| -----2-----------2--|-----2-----------2--|-----0-----------0--| --3-----------------|--3-----------------|--------------------| --------------------|--------------------|--3-----------------| CUANDO
       DO       
   E
        E        
L SOL
       SOL       
  ME
        E        
  QUEMA
        A        
  RA. --------------------|--------------------|--------------------| -----------3--------|-----------3--------|--------------------| --------0-----0-----|--------0-----0-----|--------0--------0--| -----0-----------0--|-----0-----------0--|-----0--------0-----| --------------------|--------------------|--------------------| --3-----------------|--3-----------------|--3--------2--------| 2da E
        E        
STROFA. (los mismos arpegios de la primera estrofa) Em
       Em       
   D
        D        
PARA
        A        
 QUE
        E        
 SEGUIR RIENDO
       DO       
 CUANDO
       DO       
 SIENTO QUE
        E        
 NO E
        E        
STA
        A        
   C
        C        
PARA
        A        
 QUE
        E        
 QUIERO LOS MARES SI
       SI       
 MI
       MI       
 BARCO SE
        E        
 HUNDIRA
        A        
   G
        G        
. . . G
        G        
-D-Em
       Em       
  PARA
        A        
 QUE
        E        
 SEGUIR VIVIENDO
       DO       
 SI
       SI       
 A
        A        
 LO LEJOS TU E
        E        
STAS 3ra E
        E        
STROFA.  D
        D        
QUE LA
       LA       
F
        F        
UERZAS SE
        E        
 ME
        E        
 AGOTAN MI
       MI       
 ALMA E
        E        
STA
        A        
 POR C
        C        
OMENZAR  C
        C        
OTRO D
        D        
IA E
        E        
SI
       SI       
LENCIO E
        E        
L QUE
        E        
 ACABA D
        D        
E
        E        
 PASAR PASA
        A        
 Y PASAN LOS MI
       MI       
NUTOS E
        E        
MI
       MI       
………… CORO:  G
        G        
--------------------|--------------------|--------------------| -----------0--------|-----------3--------|-----------3--------| --------0-----0-----|--------0-----0-----|--------0-----0-----| -----2-----------2--|-----0-----------0--|-----0-----------0--| --3-----------------|--------------------|--------------------| --------------------|--3-----------------|--3-----------------| OSCURA
        A        
   SOL
       SOL       
EDAD
        D        
   SOL
       SOL       
EDAD
        D        
  QUE
        E        
  SE
        E        
   D
        D        
--------------------|--------------------|-----------2--------| -----------3--------|-----------3--------|--------3-----3-----| --------0-----0-----|--------0-----0-----|-----2-----------2--| -----0-----------0--|-----0-----------0--|--0-----------------| --------------------|--------------------|--------------------| --3-----------------|--3-----------------|--------------------| ALIMENTA
        A        
   D
        D        
EL  SI
       SI       
LENCIO  D
        D        
E
        E        
  TU  B
        B        
OCA
        A        
  -----------2--------|-----------2--------|-----------2--------| --------3-----3-----|--------3-----3-----|--------3-----3-----| -----2-----------2--|-----2-----------2--|-----2-----------2--| --0-----------------|--0-----------------|--0-----------------| --------------------|--------------------|--------------------| --------------------|--------------------|--------------------| ESA
        A        
   B
        B        
OCA
        A        
  QUE
        E        
  SONRIE
        E        
  PRONUNCIANDO
       DO       
   A
        A        
SI
       SI       
  MI
       MI       
   C
        C        
--------------------|--------------------|--------------------| -----------1--------|-----------1--------|-----------1--------| --------0-----0-----|--------0-----0-----|--------0-----0-----| -----2-----------2--|-----2-----------2--|-----2-----------2--| --3-----------------|--3-----------------|--3-----------------| --------------------|--------------------|--------------------| NOMBRE
       RE       
   A
        A        
QUEL NOMBRE
       RE       
  QUE
        E        
  ME
        E        
   D
        D        
ISTE
        E        
   D
        D        
ICIENDO
       DO       
   G
        G        
--------------------|--------------------|--------------------| -----------0--------|-----------3--------|-----------3--------| --------0-----0-----|--------0-----0-----|--------0-----0-----| -----2-----------2--|-----0-----------0--|-----0-----------0--| --3-----------------|--------------------|--------------------| --------------------|--3-----------------|--3-----------------| QUE
        E        
  SI
       SI       
  MI
       MI       
   A
        A        
MOR  E
        E        
S MI
       MI       
   A
        A        
MOR QUE
        E        
   E
        E        
NTI  D
        D        
--------------------|--------------------|-----------2--------| -----------3--------|-----------3--------|--------3-----3-----| --------0-----0-----|--------0-----0-----|-----2-----------2--| -----0-----------0--|-----0-----------0--|--0-----------------| --------------------|--------------------|--------------------| --3-----------------|--3-----------------|--------------------| ESPERA
        A        
  Y QUE
        E        
   SI
       SI       
EMPRE
       RE       
   E
        E        
SPERARA
        A        
  -----------2--------|-----------2--------|-----------2--------| --------3-----3-----|--------3-----3-----|--------3-----3-----| -----2-----------2--|-----2-----------2--|-----2-----------2--| --0-----------------|--0-----------------|--0-----------------| --------------------|--------------------|--------------------| --------------------|--------------------|--------------------| ES TU  A
        A        
MOR QUE
        E        
  ME
        E        
   C
        C        
ONDENA
        A        
   A
        A        
 E
        E        
STA
        A        
   E
        E        
TERNA
        A        
   C
        C        
--------------------|--------------------|--------------------| -----------1--------|-----------1--------|-----------1--------| --------0-----0-----|--------0-----0-----|--------0-----0-----| -----2-----------2--|-----2-----------2--|-----2-----------2--| --3-----------------|--3-----------------|--3-----------------| --------------------|--------------------|--------------------| LIBERTAD
        D        
  QUE
        E        
   A
        A        
UNQUE
        E        
  PASEN  MI
       MI       
L  SI
       SI       
LENCIOS --------------------|--------------------|--------------------| -----------1--------|-----------1--------|-----------0--------| --------0-----0-----|--------0-----0-----|--------0-----0-----| -----2-----------2--|-----2-----------2--|-----2-----------2--| --3-----------------|--3-----------------|--3-----------------| --------------------|--------------------|--------------------| PRONTO SE
        E        
  QUE
        E        
  ME
        E        
  HABLARAS EL VIDEO D
        D        
E
        E        
STA
        A        
 TRANSCRIPSION YA E
        E        
STA E
        E        
N LA
       LA       
 WEB. (PIDEMELO Y TE E
        E        
NVIARE
       RE       
 EL LINK) (UN RRASGUEO SUAVE) (Como esta con capo pisas estas notas) //(G) (D) (C) JHEEEREEEMN NEM NE
        E        
  (LUEGO E
        E        
STE
        E        
 ARPEGIO) --------------------|--------------------|--------------------| -----------0--------|-----------0--------|-----------0--------| --------0-----0-----|--------0-----0-----|--------0-----0-----| -----4-----------4--|-----4-----------4--|-----4-----------4--| --7-----------------|--7-----------------|--7-----------------| --------------------|--------------------|--------------------| --------------------|--------------------|--------------------| -----------0--------|-----------0--------|-----------0--------| --------0-----0-----|--------0-----0-----|--------0-----0-----| -----4-----------4--|-----2-----------2--|-----2-----------2--| --7-----------------|--3-----------------|--3-----------------| --------------------|--------------------|--------------------| --------------------|--------------------| -----------0--------|-----------0--------| --------0-----0-----|--------0-----0-----| -----2-----------2--|-----2-----------2--| --3-----------------|--3-----------------| --------------------|--------------------|SE
        E        
 LA
       LA       
 TOCA
        A        
 2 VECES
4ta E
        E        
STROFA. (LOS MI
       MI       
SMOS A
        A        
RPEGIOS D
        D        
E
        E        
 LA
       LA       
 PRIMERA E
        E        
STROFA) EL SONIDO
       DO       
 DEL SI
       SI       
LENCIO DO
       DO       
NDE
        E        
 SE
        E        
 QUE E
        E        
SCUCHARAS EL SUSURRO D
        D        
E
        E        
 MI
       MI       
 CANTO Y E
        E        
G
        G        
RITO D
        D        
E
        E        
 MI
       MI       
 LLAMAR EL LLAMADO
       DO       
 DE
        E        
 MI
       MI       
 ALMA
        A        
 PIDIENDO
       DO       
 TU LIBERTAD
        D        
  YO QUIERO SEGUIR RIENDO
       DO       
 AUNQUE E
        E        
L LLANTO A
        A        
QUÍ E
        E        
STA
        A        
  AUNQUE E
        E        
B
        B        
ARCO SE
        E        
 ME
        E        
 HUNDA
        A        
 SE
        E        
 QUE
        E        
 YO PODRE
       RE       
 NADAR LA
       LA       
 CORRIENTE D
        D        
E
        E        
STE
        E        
 RIO A
        A        
TU A
        A        
MOR ME
        E        
 LLEVARA
        A        
  TU E
        E        
RES MI
       MI       
 FORTALEZA
        A        
 MI
       MI       
 ESCUDO
       DO       
 Y MI
       MI       
 LANZA
        A        
  ERES TODO
       DO       
 LO QUE
        E        
 TENGO C
        C        
UANDO
       DO       
 SIENTO QUE
        E        
 NO E
        E        
STAS ERES TÚ MI
       MI       
 COMPAÑÍA E
        E        
E
        E        
STA. . . . . .(VAS A
        A        
C
        C        
ORO) (LUEGO D
        D        
EL C
        C        
ORO UN RRASGUEO SUAVE) (Como estas con capo pisas estas notas) Em
       Em       
  Em
       Em       
   D
        D        
 D
        D        
VUELVE, VUELVE E
        E        
L MOMENTO  G
        G        
 G
        G        
 D
        D        
 D
        D        
DE E
        E        
SCUCHARTE
        E        
   E
        E        
N TU SI
       SI       
LENCIO Em
       Em       
  --------------------|--------------------| -----------0--------|-----------0--------| --------0-----0-----|--------0-----0-----| -----4-----------4--|-----4-----------4--| --7-----------------|--7-----------------| --------------------|--------------------| VUELVEEEEEEEEEEEEEE. . . . . . . . . .  D
        D        
--------------------|--------------------|--------------------| -----------0--------|-----------0--------|-----------3--------| --------0-----0-----|--------0-----0-----|--------2-----2-----| -----4-----------4--|-----4-----------4--|-----4-----------4--| --7-----------------|--7-----------------|--5-----------------| --------------------|--------------------|--------------------| . . . . . . . . VUELVE
        E        
   E
        E        
L MOMENTOOOOOOOO --------------------|--------------------|--------------------| -----------3--------|-----------3--------|-----------3--------| --------2-----2-----|--------2-----2-----|--------2-----2-----| -----4-----------4--|-----4-----------4--|-----4-----------4--| --5-----------------|--5-----------------|--5-----------------| --------------------|--------------------|--------------------| . . . . . . . . . . . . . . . . . . . .  D
        D        
E
        E        
   E
        E        
SCU  G
        G        
--------------------|--------------------|--------------------| -----------3--------|-----------3--------|-----------3--------| --------0-----0-----|--------0-----0-----|--------0-----0-----| -----0-----------0--|-----0-----------0--|-----0-----------0--| --------------------|--------------------|--------------------| --3-----------------|--3-----------------|--3-----------------|  C
        C        
HAAAAAAAAAAAAAARRRRTEEEEEEEEEEEEEE. . . . . . . . . . . . .  D
        D        
--------------------|-----------2--------|-----------2--------| -----------3--------|--------3-----3-----|--------3-----3-----| --------0-----0-----|-----2-----------2--|-----2-----------2--| -----0-----------0--|--0-----------------|--0-----------------| --------------------|--------------------|--------------------| --3-----------------|--------------------|--------------------|  E
        E        
N TU  SI
       SI       
LENCIOOOOOOOOOOOOO. . . . . . . . . . . -----------2--------|-----------2--------|--------------------| --------3-----3-----|--------3-----3-----|-----------3--------| -----2-----------2--|-----2-----------2--|--------0-----0-----| --0-----------------|--0-----------------|-----0-----------0--| --------------------|--------------------|--------------------| --------------------|--------------------|--3-----------------| . . . . . . . . . . . . . . . . . . . . . CORO: SOLEDAD
        D        
 QUE
        E        
 SE
        E        
 ALIMENTA D
        D        
EL SI
       SI       
LENCIO. . . . . . . . . . . . . LUEGO D
        D        
EL RRASGUEO SUAVE
        E        
 SE
        E        
 TERMINA A
        A        
SI: JHEEREEMMNN NEM NE
        E        
  --------------------| -----------0--------| --------0-----0-----| -----4-----------4--| --7-----------------| --------------------| --------------------|--------------------|--------------------| -----------0--------|-----------0--------|-----------0--------| --------0-----0-----|--------0-----0-----|--------0-----0-----| -----4-----------4--|-----4-----------4--|-----4-----------4--| --7-----------------|--7-----------------|--7-----------------| --------------------|--------------------|--------------------| --------------------|--------------------|--------------------| -----------0--------|-----------0--------|-----------0--------| --------0-----0-----|--------0-----0-----|--------0-----0-----| -----2-----------2--|-----2-----------2--|-----2-----------2--| --3-----------------|--3-----------------|--3-----------------| --------------------|--------------------|--------------------| --------------------|--------------------|--------------------| -----------0--------|-----------0--------|-----------0--------| --------0-----0-----|--------0-----0-----|--------0-----0-----| -----2-----------2--|-----4-----------4--|-----4-----------4--| --3-----------------|--7-----------------|--7-----------------| --------------------|--------------------|--------------------| --------------------|--------------------|--------------------| -----------0--------|-----------0--------|-----------0--------| --------0-----0-----|--------0-----0-----|--------0-----0-----| -----4-----------4--|-----4-----------4--|-----2-----------2--| --7-----------------|--7-----------------|--3-----------------| --------------------|--------------------|--------------------| --------------------|--------------------|--------------------|--3--|| -----------0--------|-----------0--------|-----------0--------|--3--|| --------0-----0-----|--------0-----0-----|--------0-----0-----|--0--|| -----2-----------2--|-----2-----------2--|-----2-----------2--|--0--|| --3-----------------|--3-----------------|--3-----------------|--2--|| --------------------|--------------------|--------------------|--3--|| FIN. ¡UUUFFF! NO ME C
        C        
OSTO NADA
        A        
 SACARLA
       LA       
 PERO SI
       SI       
 TRANSCRIBIRLA. PERO NO IMPORTA
        A        
 SEGUIRE
       RE       
 REALIZANDO
       DO       
 BUENAS TRANSCRIPSIONES AUNQUE
        E        
 ME C
        C        
USTE
        E        
 TRABAJO, POR QUE
        E        
 SE
        E        
 QUE
        E        
 ALGUNOS LO NECESITAN MAS QUE
        E        
 YO; PARA C
        C        
ANTARLE
        E        
 Y A
        A        
LBARLE
        E        
 A E
        E        
SE D
        D        
IOS TAN B
        B        
UENO Y PODEROSO. PARA FA
       FA       
CILITAR A
        A        
TODO
       DO       
 ESTO, YA
        A        
 PUSE E
        E        
L VIDEO D
        D        
E
        E        
 LOS PUNTEOS EN LA
       LA       
 WEB; SE
        E        
 Q SERA
        A        
 MAS FA
       FA       
CIL A
        A        
PRENDER, PORQUE
        E        
 ALLI VERAN QUE C
        C        
UERDAS SE
        E        
 TOCAN, QUE
        E        
 PISADAS E
        E        
NTRAN Y PARA
        A        
 QUE SI
       SI       
RVE E
        E        
C
        C        
APO. CUALQUIER D
        D        
UDA: jhi777go JHI777GO EN C
        C        
UANTO ME E
        E        
SCRIBAS TE
        E        
 MANDO
       DO       
 EL LINK D
        D        
EL VIDEO.

 A
        A        
lex C
        C        
ampos

Este fichero es trabajo propio de su transcriptor y representa su interpretación personal de la canción. El material contenido en esta página es para exclusivo uso privado, por lo que se prohibe su reproducción o retransmisión, así como su uso para fines comerciales.